  0
SECTION
  2
HEADER
  9
$ACADVER
  1
AC1014
  9
$ACADMAINTVER
 70
     9
  9
$DWGCODEPAGE
  3
ANSI_1252
  9
$INSBASE
 10
0.0
 20
0.0
 30
0.0
  9
$EXTMIN
 10
0.0
 20
0.0
 30
0.0
  9
$EXTMAX
 10
4000.0
 20
4000.0
 30
0.0
  9
$LIMMIN
 10
0.0
 20
0.0
  9
$LIMMAX
 10
0.0
 20
0.0
  9
$ORTHOMODE
 70
     0
  9
$REGENMODE
 70
     1
  9
$FILLMODE
 70
     1
  9
$QTEXTMODE
 70
     0
  9
$MIRRTEXT
 70
     1
  9
$DRAGMODE
 70
     2
  9
$LTSCALE
 40
1.0
  9
$OSMODE
 70
    37
  9
$ATTMODE
 70
     1
  9
$TEXTSIZE
 40
3.5
  9
$TRACEWID
 40
1.0
  9
$TEXTSTYLE
  7
STANDARD
  9
$CLAYER
  8
0
  9
$CELTYPE
  6
BYLAYER
  9
$CECOLOR
 62
   256
  9
$CELTSCALE
 40
1.0
  9
$DELOBJ
 70
     1
  9
$DISPSILH
 70
     0
  9
$DIMSCALE
 40
1.0
  9
$DIMASZ
 40
3.556
  9
$DIMEXO
 40
1.0
  9
$DIMDLI
 40
3.75
  9
$DIMRND
 40
0.0
  9
$DIMDLE
 40
0.0
  9
$DIMEXE
 40
1.0
  9
$DIMTP
 40
0.0
  9
$DIMTM
 40
0.0
  9
$DIMTXT
 40
3.5
  9
$DIMCEN
 40
2.5
  9
$DIMTSZ
 40
0.0
  9
$DIMTOL
 70
     0
  9
$DIMLIM
 70
     0
  9
$DIMTIH
 70
     1
  9
$DIMTOH
 70
     1
  9
$DIMSE1
 70
     0
  9
$DIMSE2
 70
     0
  9
$DIMTAD
 70
     1
  9
$DIMZIN
 70
     0
  9
$DIMBLK
  1

  9
$DIMASO
 70
     1
  9
$DIMSHO
 70
     1
  9
$DIMPOST
  1

  9
$DIMAPOST
  1

  9
$DIMALT
 70
     0
  9
$DIMALTD
 70
     3
  9
$DIMALTF
 40
0.0393700787
  9
$DIMLFAC
 40
1.0
  9
$DIMTOFL
 70
     1
  9
$DIMTVP
 40
0.0
  9
$DIMTIX
 70
     0
  9
$DIMSOXD
 70
     0
  9
$DIMSAH
 70
     0
  9
$DIMBLK1
  1

  9
$DIMBLK2
  1

  9
$DIMSTYLE
  2
ISO-25
  9
$DIMCLRD
 70
     0
  9
$DIMCLRE
 70
     0
  9
$DIMCLRT
 70
     0
  9
$DIMTFAC
 40
1.0
  9
$DIMGAP
 40
1.524
  9
$DIMJUST
 70
     0
  9
$DIMSD1
 70
     0
  9
$DIMSD2
 70
     0
  9
$DIMTOLJ
 70
     0
  9
$DIMTZIN
 70
     0
  9
$DIMALTZ
 70
     0
  9
$DIMALTTZ
 70
     0
  9
$DIMFIT
 70
     3
  9
$DIMUPT
 70
     0
  9
$DIMUNIT
 70
     2
  9
$DIMDEC
 70
     2
  9
$DIMTDEC
 70
     2
  9
$DIMALTU
 70
     2
  9
$DIMALTTD
 70
     3
  9
$DIMTXSTY
  7
STANDARD
  9
$DIMAUNIT
 70
     0
  9
$LUNITS
 70
     2
  9
$LUPREC
 70
     2
  9
$SKETCHINC
 40
1.0
  9
$FILLETRAD
 40
10.0
  9
$AUNITS
 70
     0
  9
$AUPREC
 70
     0
  9
$MENU
  1
.
  9
$ELEVATION
 40
0.0
  9
$PELEVATION
 40
0.0
  9
$THICKNESS
 40
0.0
  9
$LIMCHECK
 70
     0
  9
$CHAMFERA
 40
10.0
  9
$CHAMFERB
 40
10.0
  9
$CHAMFERC
 40
20.0
  9
$CHAMFERD
 40
0.0
  9
$SKPOLY
 70
     0
  9
$TDCREATE
 40
2454454.423242824
  9
$TDUPDATE
 40
2454454.423242836
  9
$TDINDWG
 40
0.0000000116
  9
$TDUSRTIMER
 40
0.0000000116
  9
$USRTIMER
 70
     1
  9
$ANGBASE
 50
0.0
  9
$ANGDIR
 70
     0
  9
$PDMODE
 70
     0
  9
$PDSIZE
 40
-1.0
  9
$PLINEWID
 40
0.0
  9
$COORDS
 70
     1
  9
$SPLFRAME
 70
     0
  9
$SPLINETYPE
 70
     6
  9
$SPLINESEGS
 70
     8
  9
$ATTDIA
 70
     0
  9
$ATTREQ
 70
     1
  9
$HANDLING
 70
     1
  9
$HANDSEED
  5
2C6
  9
$SURFTAB1
 70
     6
  9
$SURFTAB2
 70
     6
  9
$SURFTYPE
 70
     6
  9
$SURFU
 70
     6
  9
$SURFV
 70
     6
  9
$UCSNAME
  2

  9
$UCSORG
 10
0.0
 20
0.0
 30
0.0
  9
$UCSXDIR
 10
1.0
 20
0.0
 30
0.0
  9
$UCSYDIR
 10
0.0
 20
1.0
 30
0.0
  9
$PUCSNAME
  2

  9
$PUCSORG
 10
0.0
 20
0.0
 30
0.0
  9
$PUCSXDIR
 10
1.0
 20
0.0
 30
0.0
  9
$PUCSYDIR
 10
0.0
 20
1.0
 30
0.0
  9
$USERI1
 70
     0
  9
$USERI2
 70
     0
  9
$USERI3
 70
     0
  9
$USERI4
 70
     0
  9
$USERI5
 70
     0
  9
$USERR1
 40
0.0
  9
$USERR2
 40
0.0
  9
$USERR3
 40
0.0
  9
$USERR4
 40
0.0
  9
$USERR5
 40
0.0
  9
$WORLDVIEW
 70
     1
  9
$SHADEDGE
 70
     3
  9
$SHADEDIF
 70
    70
  9
$TILEMODE
 70
     1
  9
$MAXACTVP
 70
    64
  9
$PINSBASE
 10
0.0
 20
0.0
 30
0.0
  9
$PLIMCHECK
 70
     0
  9
$PEXTMIN
 10
1.0000000000E+20
 20
1.0000000000E+20
 30
1.0000000000E+20
  9
$PEXTMAX
 10
-1.0000000000E+20
 20
-1.0000000000E+20
 30
-1.0000000000E+20
  9
$PLIMMIN
 10
0.0
 20
0.0
  9
$PLIMMAX
 10
420.0
 20
297.0
  9
$UNITMODE
 70
     0
  9
$VISRETAIN
 70
     1
  9
$PLINEGEN
 70
     0
  9
$PSLTSCALE
 70
     1
  9
$TREEDEPTH
 70
  3020
  9
$PICKSTYLE
 70
     1
  9
$CMLSTYLE
  2
STANDARD
  9
$CMLJUST
 70
     0
  9
$CMLSCALE
 40
20.0
  9
$PROXYGRAPHICS
 70
     1
  9
$MEASUREMENT
 70
     1
  0
ENDSEC
  0
SECTION
  2
CLASSES
  0
CLASS
  1
ACDBDICTIONARYWDFLT
  2
AcDbDictionaryWithDefault
  3
ObjectDBX Classes
 90
        0
280
     0
281
     0
  0
CLASS
  1
XRECORD
  2
AcDbXrecord
  3
AutoCAD 2000
 90
        0
280
     0
281
     0
  0
CLASS
  1
LWPOLYLINE
  2
AcDbPolyline
  3
AutoCAD 2000
 90
        0
280
     0
281
     1
  0
CLASS
  1
HATCH
  2
AcDbHatch
  3
AutoCAD 2000
 90
        0
280
     0
281
     1
  0
CLASS
  1
ACDBPLACEHOLDER
  2
AcDbPlaceHolder
  3
ObjectDBX Classes
 90
        0
280
     0
281
     0
  0
CLASS
  1
LAYOUT
  2
AcDbLayout
  3
ObjectDBX Classes
 90
        0
280
     0
281
     0
  0
ENDSEC
  0
SECTION
  2
TABLES
  0
TABLE
  2
VPORT
  5
8
330
0
100
AcDbSymbolTable
 70
     1
  0
VPORT
  5
29
330
8
100
AcDbSymbolTableRecord
100
AcDbViewportTableRecord
  2
*ACTIVE
 70
     0
 10
0.0
 20
0.0
 11
1.0
 21
1.0
 12
2000.0
 22
2000.0
 13
0.0
 23
0.0
 14
10.0
 24
10.0
 15
10.0
 25
10.0
 16
0.0
 26
0.0
 36
1.0
 17
0.0
 27
0.0
 37
0.0
 40
4000.0
 41
0.1464932432
 42
50.0
 43
0.0
 44
0.0
 50
0.0
 51
0.0
 71
     0
 72
  2000
 73
     1
 74
     3
 75
     0
 76
     0
 77
     0
 78
     0
  0
ENDTAB
  0
TABLE
  2
LTYPE
  5
5
330
0
100
AcDbSymbolTable
 70
     6
  0
LTYPE
  5
14
330
5
100
AcDbSymbolTableRecord
100
AcDbLinetypeTableRecord
  2
BYBLOCK
 70
     0
  3

 72
    65
 73
     0
 40
0.0
  0
LTYPE
  5
15
330
5
100
AcDbSymbolTableRecord
100
AcDbLinetypeTableRecord
  2
BYLAYER
 70
     0
  3

 72
    65
 73
     0
 40
0.0
  0
LTYPE
  5
16
330
5
100
AcDbSymbolTableRecord
100
AcDbLinetypeTableRecord
  2
CONTINUOUS
 70
     0
  3
Solid line
 72
    65
 73
     0
 40
0.0
  0
LTYPE
  5
2A
330
5
100
AcDbSymbolTableRecord
100
AcDbLinetypeTableRecord
  2
HIDDEN
 70
     0
  3
Hidden __ __ __ __ __ __ __ __ __ __ __ __ __ __
 72
    65
 73
     2
 40
1.905
 49
1.27
 74
     0
 49
-0.635
 74
     0
  0
LTYPE
  5
2B
330
5
100
AcDbSymbolTableRecord
100
AcDbLinetypeTableRecord
  2
PHANTOM
 70
     0
  3
Phantom ______  __  __  ______  __  __  ______
 72
    65
 73
     6
 40
12.7
 49
6.35
 74
     0
 49
-1.27
 74
     0
 49
1.27
 74
     0
 49
-1.27
 74
     0
 49
1.27
 74
     0
 49
-1.27
 74
     0
  0
LTYPE
  5
2C
330
5
100
AcDbSymbolTableRecord
100
AcDbLinetypeTableRecord
  2
CENTER
 70
     0
  3
Center ____ _ ____ _ ____ _ ____ _ ____ _ ____
 72
    65
 73
     4
 40
10.16
 49
6.35
 74
     0
 49
-1.27
 74
     0
 49
1.27
 74
     0
 49
-1.27
 74
     0
  0
LTYPE
  5
2D
330
5
100
AcDbSymbolTableRecord
100
AcDbLinetypeTableRecord
  2
CENTERX2
 70
     0
  3
Center (2x) ________  __  ________  __  _____
 72
    65
 73
     4
 40
20.32
 49
12.7
 74
     0
 49
-2.54
 74
     0
 49
2.54
 74
     0
 49
-2.54
 74
     0
  0
LTYPE
  5
2E
330
5
100
AcDbSymbolTableRecord
100
AcDbLinetypeTableRecord
  2
DOT2
 70
     0
  3
Dot (.5x) ........................................
 72
    65
 73
     2
 40
0.635
 49
0.0
 74
     0
 49
-0.635
 74
     0
  0
ENDTAB
  0
TABLE
  2
LAYER
  5
2
330
0
100
AcDbSymbolTable
 70
     2
  0
LAYER
  5
10
330
2
100
AcDbSymbolTableRecord
100
AcDbLayerTableRecord
  2
0
 70
     0
 62
     7
  6
CONTINUOUS
  0
LAYER
  5
2F
330
2
100
AcDbSymbolTableRecord
100
AcDbLayerTableRecord
  2
FORMAT
 70
     0
 62
     7
  6
CONTINUOUS
  0
ENDTAB
  0
TABLE
  2
STYLE
  5
3
330
0
100
AcDbSymbolTable
 70
     1
  0
STYLE
  5
11
330
3
100
AcDbSymbolTableRecord
100
AcDbTextStyleTableRecord
  2
STANDARD
 70
     0
 40
0.0
 41
1.0
 50
0.0
 71
     0
 42
2.5
  3
txt
  4

  0
ENDTAB
  0
TABLE
  2
VIEW
  5
6
330
0
100
AcDbSymbolTable
 70
     0
  0
ENDTAB
  0
TABLE
  2
UCS
  5
7
330
0
100
AcDbSymbolTable
 70
     0
  0
ENDTAB
  0
TABLE
  2
APPID
  5
9
330
0
100
AcDbSymbolTable
 70
     1
  0
APPID
  5
12
330
9
100
AcDbSymbolTableRecord
100
AcDbRegAppTableRecord
  2
ACAD
 70
     0
  0
ENDTAB
  0
TABLE
  2
DIMSTYLE
  5
A
330
0
100
AcDbSymbolTable
 70
     1
  0
DIMSTYLE
105
27
330
A
100
AcDbSymbolTableRecord
100
AcDbDimStyleTableRecord
  2
ISO-25
 70
     0
  3

  4

  5

  6

  7

 40
1.0
 41
2.5
 42
0.625
 43
3.75
 44
1.25
 45
0.0
 46
0.0
 47
0.0
 48
0.0
140
2.5
141
2.5
142
0.0
143
0.0393700787
144
1.0
145
0.0
146
1.0
147
0.625
 71
     0
 72
     0
 73
     0
 74
     0
 75
     0
 76
     0
 77
     1
 78
     8
170
     0
171
     3
172
     1
173
     0
174
     0
175
     0
176
     0
177
     0
178
     0
270
     2
271
     2
272
     2
273
     2
274
     3
340
11
275
     0
280
     0
281
     0
282
     0
283
     0
284
     8
285
     0
286
     0
287
     3
288
     0
  0
ENDTAB
  0
TABLE
  2
BLOCK_RECORD
  5
1
330
0
100
AcDbSymbolTable
 70
     1
  0
BLOCK_RECORD
  5
1F
330
1
100
AcDbSymbolTableRecord
100
AcDbBlockTableRecord
  2
*MODEL_SPACE
  0
BLOCK_RECORD
  5
1B
330
1
100
AcDbSymbolTableRecord
100
AcDbBlockTableRecord
  2
*PAPER_SPACE
  0
ENDTAB
  0
ENDSEC
  0
SECTION
  2
BLOCKS
  0
BLOCK
  5
20
330
1F
100
AcDbEntity
  8
0
100
AcDbBlockBegin
  2
*MODEL_SPACE
 70
     0
 71
     0
 10
0.0
 20
0.0
 30
0.0
  3
*MODEL_SPACE
  1

  0
ENDBLK
  5
21
330
1F
100
AcDbEntity
  8
0
100
AcDbBlockEnd
  0
BLOCK
  5
1C
330
1B
100
AcDbEntity
 67
     1
  8
0
100
AcDbBlockBegin
  2
*PAPER_SPACE
 70
     0
 71
     0
 10
0.0
 20
0.0
 30
0.0
  3
*PAPER_SPACE
  1

  0
ENDBLK
  5
1D
330
1B
100
AcDbEntity
 67
     1
  8
0
100
AcDbBlockEnd
  0
ENDSEC
  0
SECTION
  2
ENTITIES
  0
LINE
  5
30
330
1F
100
AcDbEntity
  8
0
  6
CONTINUOUS
 62
     7
100
AcDbLine
 10
1305.1046073437
 20
3402.8949558735
 30
0.0
 11
1305.1046073437
 21
2997.1050441265
 31
0.0
  0
LINE
  5
31
330
1F
100
AcDbEntity
  8
0
  6
CONTINUOUS
 62
     7
100
AcDbLine
 10
494.8953926563
 20
2997.1050441265
 30
0.0
 11
494.8953926563
 21
3402.8949558735
 31
0.0
  0
ARC
  5
32
330
1F
100
AcDbEntity
  8
0
  6
CONTINUOUS
 62
     7
100
AcDbCircle
 10
1428.95
 20
3145.0
 30
0.0
 40
8.700000000000035
100
AcDbArc
 50
333.7084447253
 51
345.0473919675
  0
ARC
  5
33
330
1F
100
AcDbEntity
  8
0
  6
CONTINUOUS
 62
     7
100
AcDbCircle
 10
1428.95
 20
3145.0
 30
0.0
 40
8.700000000000062
100
AcDbArc
 50
14.9701385757
 51
26.2915552747
  0
LINE
  5
34
330
1F
100
AcDbEntity
  8
0
  6
CONTINUOUS
 62
     7
100
AcDbLine
 10
1408.95
 20
3142.5
 30
0.0
 11
1421.7499732971
 21
3142.4999989569
 31
0.0
  0
LINE
  5
35
330
1F
100
AcDbEntity
  8
0
  6
CONTINUOUS
 62
     7
100
AcDbLine
 10
1421.7499732971
 20
3147.5000016391
 30
0.0
 11
1408.95
 21
3147.5
 31
0.0
  0
LINE
  5
36
330
1F
100
AcDbEntity
  8
0
  6
CONTINUOUS
 62
     7
100
AcDbLine
 10
1437.5345945358
 20
3143.9146853983
 30
0.0
 11
1437.3548269272
 21
3143.9146853983
 31
0.0
  0
LINE
  5
37
330
1F
100
AcDbEntity
  8
0
  6
CONTINUOUS
 62
     7
100
AcDbLine
 10
1437.3556613922
 20
3146.0853151977
 30
0.0
 11
1437.5345349312
 21
3146.0853151977
 31
0.0
  0
ARC
  5
38
330
1F
100
AcDbEntity
  8
0
  6
CONTINUOUS
 62
     7
100
AcDbCircle
 10
1428.95
 20
3240.0
 30
0.0
 40
8.700000000000035
100
AcDbArc
 50
333.7084447253
 51
345.0473919675
  0
ARC
  5
39
330
1F
100
AcDbEntity
  8
0
  6
CONTINUOUS
 62
     7
100
AcDbCircle
 10
1428.95
 20
3240.0
 30
0.0
 40
8.700000000000236
100
AcDbArc
 50
14.9701385757
 51
26.2915552747
  0
LINE
  5
3A
330
1F
100
AcDbEntity
  8
0
  6
CONTINUOUS
 62
     7
100
AcDbLine
 10
1408.95
 20
3237.5
 30
0.0
 11
1421.7499732971
 21
3237.5000014901
 31
0.0
  0
LINE
  5
3B
330
1F
100
AcDbEntity
  8
0
  6
CONTINUOUS
 62
     7
100
AcDbLine
 10
1421.7499732971
 20
3242.500000447
 30
0.0
 11
1408.95
 21
3242.5
 31
0.0
  0
LINE
  5
3C
330
1F
100
AcDbEntity
  8
0
  6
CONTINUOUS
 62
     7
100
AcDbLine
 10
1437.5345945358
 20
3238.9146842062
 30
0.0
 11
1437.3548269272
 21
3238.9146842062
 31
0.0
  0
LINE
  5
3D
330
1F
100
AcDbEntity
  8
0
  6
CONTINUOUS
 62
     7
100
AcDbLine
 10
1437.3556613922
 20
3241.0853140056
 30
0.0
 11
1437.5345349312
 21
3241.0853140056
 31
0.0
  0
LINE
  5
3E
330
1F
100
AcDbEntity
  8
0
  6
CONTINUOUS
 62
     7
100
AcDbLine
 10
1295.1803445816
 20
3406.9992572069
 30
0.0
 11
504.8196554184
 21
3406.9992572069
 31
0.0
  0
ARC
  5
3F
330
1F
100
AcDbEntity
  8
0
  6
CONTINUOUS
 62
     7
100
AcDbCircle
 10
1288.7164840523
 20
3404.3562134329
 30
0.0
 40
6.983349721548843
100
AcDbArc
 50
1.1737224583
 51
22.2394342005
  0
LINE
  5
40
330
1F
100
AcDbEntity
  8
0
  6
CONTINUOUS
 62
     7
100
AcDbLine
 10
1295.6983685493
 20
3404.4992595911
 30
0.0
 11
504.3016314507
 21
3404.4992595911
 31
0.0
  0
ARC
  5
41
330
1F
100
AcDbEntity
  8
0
  6
CONTINUOUS
 62
     7
100
AcDbCircle
 10
511.2835159477
 20
3404.3562134329
 30
0.0
 40
6.983349721548682
100
AcDbArc
 50
157.7605657995
 51
178.8262775417
  0
LINE
  5
42
330
1F
100
AcDbEntity
  8
0
  6
CONTINUOUS
 62
     7
100
AcDbLine
 10
900.4904344096
 20
3023.9493668079
 30
0.0
 11
893.8443657011
 21
3023.9493668079
 31
0.0
  0
LINE
  5
43
330
1F
100
AcDbEntity
  8
0
  6
CONTINUOUS
 62
     7
100
AcDbLine
 10
893.8443657011
 20
3023.9493668079
 30
0.0
 11
910.4462420568
 21
2998.9767938852
 31
0.0
  0
LINE
  5
44
330
1F
100
AcDbEntity
  8
0
  6
CONTINUOUS
 62
     7
100
AcDbLine
 10
910.4462420568
 20
2998.9767938852
 30
0.0
 11
917.0923098922
 21
2998.9767938852
 31
0.0
  0
LINE
  5
45
330
1F
100
AcDbEntity
  8
0
  6
CONTINUOUS
 62
     7
100
AcDbLine
 10
917.0923098922
 20
2998.9767938852
 30
0.0
 11
900.4904344096
 21
3023.9493668079
 31
0.0
  0
LINE
  5
46
330
1F
100
AcDbEntity
  8
0
  6
CONTINUOUS
 62
     7
100
AcDbLine
 10
914.270529151
 20
3023.9493668079
 30
0.0
 11
907.21964892
 21
3023.9493668079
 31
0.0
  0
LINE
  5
47
330
1F
100
AcDbEntity
  8
0
  6
CONTINUOUS
 62
     7
100
AcDbLine
 10
907.21964892
 20
3023.9493668079
 30
0.0
 11
905.0723869354
 21
3020.3084766865
 31
0.0
  0
LINE
  5
48
330
1F
100
AcDbEntity
  8
0
  6
CONTINUOUS
 62
     7
100
AcDbLine
 10
905.0723869354
 20
3020.3084766865
 30
0.0
 11
908.3675142378
 21
3015.3519332409
 31
0.0
  0
LINE
  5
49
330
1F
100
AcDbEntity
  8
0
  6
CONTINUOUS
 62
     7
100
AcDbLine
 10
908.3675142378
 20
3015.3519332409
 30
0.0
 11
914.270529151
 21
3023.9493668079
 31
0.0
  0
LINE
  5
4A
330
1F
100
AcDbEntity
  8
0
  6
CONTINUOUS
 62
     7
100
AcDbLine
 10
891.6828926653
 20
3023.9493668079
 30
0.0
 11
878.9665136486
 21
3023.9493668079
 31
0.0
  0
LINE
  5
4B
330
1F
100
AcDbEntity
  8
0
  6
CONTINUOUS
 62
     7
100
AcDbLine
 10
878.9665136486
 20
3023.9493668079
 30
0.0
 11
878.9665136486
 21
3010.4617595673
 31
0.0
  0
LINE
  5
4C
330
1F
100
AcDbEntity
  8
0
  6
CONTINUOUS
 62
     7
100
AcDbLine
 10
878.9665136486
 20
3010.4617595673
 30
0.0
 11
878.9077769965
 21
3010.4617595673
 31
0.0
  0
LINE
  5
4D
330
1F
100
AcDbEntity
  8
0
  6
CONTINUOUS
 62
     7
100
AcDbLine
 10
878.9077769965
 20
3010.4617595673
 30
0.0
 11
870.0302779675
 21
3023.9493668079
 31
0.0
  0
LINE
  5
4E
330
1F
100
AcDbEntity
  8
0
  6
CONTINUOUS
 62
     7
100
AcDbLine
 10
870.0302779675
 20
3023.9493668079
 30
0.0
 11
863.8894312084
 21
3023.9493668079
 31
0.0
  0
LINE
  5
4F
330
1F
100
AcDbEntity
  8
0
  6
CONTINUOUS
 62
     7
100
AcDbLine
 10
863.8894312084
 20
3023.9493668079
 30
0.0
 11
863.8894312084
 21
3001.8894642591
 31
0.0
  0
LINE
  5
50
330
1F
100
AcDbEntity
  8
0
  6
CONTINUOUS
 62
     7
100
AcDbLine
 10
863.8894312084
 20
3001.8894642591
 30
0.0
 11
869.6238785982
 21
3001.8894642591
 31
0.0
  0
LINE
  5
51
330
1F
100
AcDbEntity
  8
0
  6
CONTINUOUS
 62
     7
100
AcDbLine
 10
869.6238785982
 20
3001.8894642591
 30
0.0
 11
869.6238785982
 21
3014.5116716623
 31
0.0
  0
LINE
  5
52
330
1F
100
AcDbEntity
  8
0
  6
CONTINUOUS
 62
     7
100
AcDbLine
 10
869.6238785982
 20
3014.5116716623
 30
0.0
 11
878.0332632363
 21
3001.8894642591
 31
0.0
  0
LINE
  5
53
330
1F
100
AcDbEntity
  8
0
  6
CONTINUOUS
 62
     7
100
AcDbLine
 10
878.0332632363
 20
3001.8894642591
 30
0.0
 11
898.7935948884
 21
3001.8894642591
 31
0.0
  0
LINE
  5
54
330
1F
100
AcDbEntity
  8
0
  6
CONTINUOUS
 62
     7
100
AcDbLine
 10
898.7935948884
 20
3001.8894642591
 30
0.0
 11
902.6771568228
 21
3007.4117749929
 31
0.0
  0
LINE
  5
55
330
1F
100
AcDbEntity
  8
0
  6
CONTINUOUS
 62
     7
100
AcDbLine
 10
902.6771568228
 20
3007.4117749929
 30
0.0
 11
899.452621385
 21
3012.2621178627
 31
0.0
  0
LINE
  5
56
330
1F
100
AcDbEntity
  8
0
  6
CONTINUOUS
 62
     7
100
AcDbLine
 10
899.452621385
 20
3012.2621178627
 30
0.0
 11
895.416784659
 21
3006.748598814
 31
0.0
  0
LINE
  5
57
330
1F
100
AcDbEntity
  8
0
  6
CONTINUOUS
 62
     7
100
AcDbLine
 10
895.416784659
 20
3006.748598814
 30
0.0
 11
886.2239686772
 21
3006.7460209131
 31
0.0
  0
LINE
  5
58
330
1F
100
AcDbEntity
  8
0
  6
CONTINUOUS
 62
     7
100
AcDbLine
 10
886.2239686772
 20
3006.7460209131
 30
0.0
 11
886.2239686772
 21
3010.549467802
 31
0.0
  0
LINE
  5
59
330
1F
100
AcDbEntity
  8
0
  6
CONTINUOUS
 62
     7
100
AcDbLine
 10
886.2239686772
 20
3010.549467802
 30
0.0
 11
893.1424921378
 21
3010.549467802
 31
0.0
  0
LINE
  5
5A
330
1F
100
AcDbEntity
  8
0
  6
CONTINUOUS
 62
     7
100
AcDbLine
 10
893.1424921378
 20
3010.549467802
 30
0.0
 11
893.1424921378
 21
3015.4062330723
 31
0.0
  0
LINE
  5
5B
330
1F
100
AcDbEntity
  8
0
  6
CONTINUOUS
 62
     7
100
AcDbLine
 10
893.1424921378
 20
3015.4062330723
 30
0.0
 11
886.2239686772
 21
3015.4062330723
 31
0.0
  0
LINE
  5
5C
330
1F
100
AcDbEntity
  8
0
  6
CONTINUOUS
 62
     7
100
AcDbLine
 10
886.2239686772
 20
3015.4062330723
 30
0.0
 11
886.2239686772
 21
3019.0926015377
 31
0.0
  0
LINE
  5
5D
330
1F
100
AcDbEntity
  8
0
  6
CONTINUOUS
 62
     7
100
AcDbLine
 10
886.2239686772
 20
3019.0926015377
 30
0.0
 11
893.5181341134
 21
3019.0926015377
 31
0.0
  0
LINE
  5
5E
330
1F
100
AcDbEntity
  8
0
  6
CONTINUOUS
 62
     7
100
AcDbLine
 10
893.5181341134
 20
3019.0926015377
 30
0.0
 11
893.5181341134
 21
3021.1887925863
 31
0.0
  0
LINE
  5
5F
330
1F
100
AcDbEntity
  8
0
  6
CONTINUOUS
 62
     7
100
AcDbLine
 10
893.5181341134
 20
3021.1887925863
 30
0.0
 11
891.6828926653
 21
3023.9493668079
 31
0.0
  0
LINE
  5
60
330
1F
100
AcDbEntity
  8
0
  6
CONTINUOUS
 62
     7
100
AcDbLine
 10
936.2045249845
 20
3012.0540163789
 30
0.0
 11
930.6252034548
 21
3012.0540163789
 31
0.0
  0
ARC
  5
61
330
1F
100
AcDbEntity
  8
0
  6
CONTINUOUS
 62
     7
100
AcDbCircle
 10
924.4772822115
 20
3013.0140163789
 30
0.0
 40
6.22242200551121
100
AcDbArc
 50
188.8750851215
 51
351.1249148785
  0
LINE
  5
62
330
1F
100
AcDbEntity
  8
0
  6
CONTINUOUS
 62
     7
100
AcDbLine
 10
918.3293609681
 20
3012.0540163789
 30
0.0
 11
912.7500394385
 21
3012.0540163789
 31
0.0
  0
ARC
  5
63
330
1F
100
AcDbEntity
  8
0
  6
CONTINUOUS
 62
     7
100
AcDbCircle
 10
924.4772822115
 20
3013.0140163789
 30
0.0
 40
11.76647028880746
100
AcDbArc
 50
184.6798362955
 51
355.3201637045
  0
LINE
  5
64
330
1F
100
AcDbEntity
  8
0
  6
CONTINUOUS
 62
     7
100
AcDbLine
 10
912.7500394385
 20
3013.9740163789
 30
0.0
 11
918.3293609681
 21
3013.9740163789
 31
0.0
  0
ARC
  5
65
330
1F
100
AcDbEntity
  8
0
  6
CONTINUOUS
 62
     7
100
AcDbCircle
 10
924.4772822115
 20
3013.0140163789
 30
0.0
 40
6.22242200551121
100
AcDbArc
 50
8.8750851215
 51
171.1249148785
  0
LINE
  5
66
330
1F
100
AcDbEntity
  8
0
  6
CONTINUOUS
 62
     7
100
AcDbLine
 10
930.6252034548
 20
3013.9740163789
 30
0.0
 11
936.2045249845
 21
3013.9740163789
 31
0.0
  0
ARC
  5
67
330
1F
100
AcDbEntity
  8
0
  6
CONTINUOUS
 62
     7
100
AcDbCircle
 10
924.4772822115
 20
3013.0140163789
 30
0.0
 40
11.76647028880758
100
AcDbArc
 50
4.6798362955
 51
175.3201637045
  0
LINE
  5
68
330
1F
100
AcDbEntity
  8
0
  6
CONTINUOUS
 62
     7
100
AcDbLine
 10
504.3016314507
 20
2995.5007404089
 30
0.0
 11
504.2500138283
 21
2995.7500070333
 31
0.0
  0
LINE
  5
69
330
1F
100
AcDbEntity
  8
0
  6
CONTINUOUS
 62
     7
100
AcDbLine
 10
504.2500138283
 20
2995.7500070333
 30
0.0
 11
503.6423392288
 21
2995.75
 31
0.0
  0
LINE
  5
6A
330
1F
100
AcDbEntity
  8
0
  6
CONTINUOUS
 62
     7
100
AcDbLine
 10
503.6423392288
 20
2995.75
 30
0.0
 11
503.6423392288
 21
3404.25
 31
0.0
  0
LINE
  5
6B
330
1F
100
AcDbEntity
  8
0
  6
CONTINUOUS
 62
     7
100
AcDbLine
 10
504.2500138283
 20
3404.2499929667
 30
0.0
 11
503.6423392288
 21
3404.25
 31
0.0
  0
LINE
  5
6C
330
1F
100
AcDbEntity
  8
0
  6
CONTINUOUS
 62
     7
100
AcDbLine
 10
1295.6983685493
 20
3404.4992595911
 30
0.0
 11
1295.7499861717
 21
3404.2499929667
 31
0.0
  0
LINE
  5
6D
330
1F
100
AcDbEntity
  8
0
  6
CONTINUOUS
 62
     7
100
AcDbLine
 10
1295.7499861717
 20
3404.2499929667
 30
0.0
 11
1296.3576607712
 21
3404.25
 31
0.0
  0
LINE
  5
6E
330
1F
100
AcDbEntity
  8
0
  6
CONTINUOUS
 62
     7
100
AcDbLine
 10
1296.3576607712
 20
2995.75
 30
0.0
 11
1296.3576607712
 21
3404.25
 31
0.0
  0
LINE
  5
6F
330
1F
100
AcDbEntity
  8
0
  6
CONTINUOUS
 62
     7
100
AcDbLine
 10
1295.7499861717
 20
2995.7500070333
 30
0.0
 11
1296.3576607712
 21
2995.75
 31
0.0
  0
LINE
  5
70
330
1F
100
AcDbEntity
  8
0
  6
CONTINUOUS
 62
     7
100
AcDbLine
 10
1295.6983685493
 20
2995.5007404089
 30
0.0
 11
1295.7499861717
 21
2995.7500070333
 31
0.0
  0
LINE
  5
71
330
1F
100
AcDbEntity
  8
0
  6
CONTINUOUS
 62
     7
100
AcDbLine
 10
1295.6983685493
 20
2995.5007404089
 30
0.0
 11
504.3016314507
 21
2995.5007404089
 31
0.0
  0
LINE
  5
72
330
1F
100
AcDbEntity
  8
0
  6
CONTINUOUS
 62
     7
100
AcDbLine
 10
504.3016314507
 20
3404.4992595911
 30
0.0
 11
504.2500138283
 21
3404.2499929667
 31
0.0
  0
ARC
  5
73
330
1F
100
AcDbEntity
  8
0
  6
CONTINUOUS
 62
     7
100
AcDbCircle
 10
1288.7164840523
 20
2995.6437865671
 30
0.0
 40
6.983349721548852
100
AcDbArc
 50
337.7605657995
 51
358.8262775417
  0
LINE
  5
74
330
1F
100
AcDbEntity
  8
0
  6
CONTINUOUS
 62
     7
100
AcDbLine
 10
1295.1803445816
 20
2993.0007427931
 30
0.0
 11
504.8196554184
 21
2993.0007427931
 31
0.0
  0
ARC
  5
75
330
1F
100
AcDbEntity
  8
0
  6
CONTINUOUS
 62
     7
100
AcDbCircle
 10
511.2835159477
 20
2995.6437865671
 30
0.0
 40
6.983349721548682
100
AcDbArc
 50
181.1737224583
 51
202.2394342005
  0
LINE
  5
76
330
1F
100
AcDbEntity
  8
0
  6
CONTINUOUS
 62
     7
100
AcDbLine
 10
497.1423392288
 20
2995.75
 30
0.0
 11
497.1423392288
 21
3404.25
 31
0.0
  0
LINE
  5
77
330
1F
100
AcDbEntity
  8
0
  6
CONTINUOUS
 62
     7
100
AcDbLine
 10
503.6423392288
 20
2995.75
 30
0.0
 11
497.1423392288
 21
2995.75
 31
0.0
  0
LINE
  5
78
330
1F
100
AcDbEntity
  8
0
  6
CONTINUOUS
 62
     7
100
AcDbLine
 10
497.1423392288
 20
3404.25
 30
0.0
 11
503.6423392288
 21
3404.25
 31
0.0
  0
LINE
  5
79
330
1F
100
AcDbEntity
  8
0
  6
CONTINUOUS
 62
     7
100
AcDbLine
 10
1302.8576607712
 20
2995.75
 30
0.0
 11
1302.8576607712
 21
3404.25
 31
0.0
  0
LINE
  5
7A
330
1F
100
AcDbEntity
  8
0
  6
CONTINUOUS
 62
     7
100
AcDbLine
 10
1296.3576607712
 20
3404.25
 30
0.0
 11
1302.8576607712
 21
3404.25
 31
0.0
  0
LINE
  5
7B
330
1F
100
AcDbEntity
  8
0
  6
CONTINUOUS
 62
     7
100
AcDbLine
 10
1302.8576607712
 20
2995.75
 30
0.0
 11
1296.3576607712
 21
2995.75
 31
0.0
  0
ARC
  5
7C
330
1F
100
AcDbEntity
  8
0
  6
CONTINUOUS
 62
     7
100
AcDbCircle
 10
1427.25
 20
3415.5
 30
0.0
 40
9.5
100
AcDbArc
 50
0.0
 51
90.0
  0
LINE
  5
7D
330
1F
100
AcDbEntity
  8
0
  6
CONTINUOUS
 62
     7
100
AcDbLine
 10
1436.75
 20
3415.5
 30
0.0
 11
1427.25
 21
3415.5
 31
0.0
  0
LINE
  5
7E
330
1F
100
AcDbEntity
  8
0
  6
CONTINUOUS
 62
     7
100
AcDbLine
 10
1427.25
 20
3425.0
 30
0.0
 11
1427.25
 21
3415.5
 31
0.0
  0
LINE
  5
7F
330
1F
100
AcDbEntity
  8
0
  6
CONTINUOUS
 62
     7
100
AcDbLine
 10
372.75
 20
3415.5
 30
0.0
 11
372.7500081062
 21
3413.0404114723
 31
0.0
  0
LINE
  5
80
330
1F
100
AcDbEntity
  8
0
  6
CONTINUOUS
 62
     7
100
AcDbLine
 10
1427.25
 20
3415.5
 30
0.0
 11
372.75
 21
3415.5
 31
0.0
  0
LINE
  5
81
330
1F
100
AcDbEntity
  8
0
  6
CONTINUOUS
 62
     7
100
AcDbLine
 10
1427.25
 20
3415.5
 30
0.0
 11
1427.2499918938
 21
3413.0404114723
 31
0.0
  0
LINE
  5
82
330
1F
100
AcDbEntity
  8
0
  6
CONTINUOUS
 62
     7
100
AcDbLine
 10
1426.75
 20
3413.0404082058
 30
0.0
 11
1427.2499918938
 21
3413.0404114723
 31
0.0
  0
ARC
  5
83
330
1F
100
AcDbEntity
  8
0
  6
CONTINUOUS
 62
     7
100
AcDbCircle
 10
1426.7330691959
 20
3415.2743869492
 30
0.0
 40
2.234039846757017
100
AcDbArc
 50
227.2804555547
 51
270.4349451852
  0
LWPOLYLINE
  5
84
330
1F
100
AcDbEntity
  8
0
  6
CONTINUOUS
 62
     7
100
AcDbPolyline
 90
        3
 70
   128
 43
0.0
 10
1423.8242745399
 20
3415.0000035763
 10
1423.8342285156
 20
3414.9900048971
 10
1425.2174735069
 20
3413.6330753565
  0
LINE
  5
85
330
1F
100
AcDbEntity
  8
0
  6
CONTINUOUS
 62
     7
100
AcDbLine
 10
1423.8242522323
 20
3415.0
 30
0.0
 11
376.1757477677
 21
3415.0
 31
0.0
  0
LWPOLYLINE
  5
86
330
1F
100
AcDbEntity
  8
0
  6
CONTINUOUS
 62
     7
100
AcDbPolyline
 90
        3
 70
   128
 43
0.0
 10
376.1757254601
 20
3415.0000035763
 10
376.1657714844
 20
3414.9900048971
 10
374.7825264931
 20
3413.6330753565
  0
ARC
  5
87
330
1F
100
AcDbEntity
  8
0
  6
CONTINUOUS
 62
     7
100
AcDbCircle
 10
373.2669308041
 20
3415.2743869492
 30
0.0
 40
2.234039846757019
100
AcDbArc
 50
269.5650548148
 51
312.7195444453
  0
LINE
  5
88
330
1F
100
AcDbEntity
  8
0
  6
CONTINUOUS
 62
     7
100
AcDbLine
 10
373.25
 20
3413.0404082058
 30
0.0
 11
372.7500081062
 21
3413.0404114723
 31
0.0
  0
LINE
  5
89
330
1F
100
AcDbEntity
  8
0
  6
CONTINUOUS
 62
     7
100
AcDbLine
 10
1426.75
 20
3413.0
 30
0.0
 11
1426.75
 21
3413.0404082058
 31
0.0
  0
ARC
  5
8A
330
1F
100
AcDbEntity
  8
0
  6
CONTINUOUS
 62
     7
100
AcDbCircle
 10
1440.9025907198
 20
3414.8228631306
 30
0.0
 40
15.73017790522542
100
AcDbArc
 50
184.3378394181
 51
186.6545702181
  0
LINE
  5
8B
330
1F
100
AcDbEntity
  8
0
  6
CONTINUOUS
 62
     7
100
AcDbLine
 10
1427.2499918938
 20
3413.0404114723
 30
0.0
 11
1427.8251158052
 21
3413.0
 31
0.0
  0
LINE
  5
8C
330
1F
100
AcDbEntity
  8
0
  6
CONTINUOUS
 62
     7
100
AcDbLine
 10
372.75
 20
3425.0
 30
0.0
 11
1427.25
 21
3425.0
 31
0.0
  0
LINE
  5
8D
330
1F
100
AcDbEntity
  8
0
  6
CONTINUOUS
 62
     7
100
AcDbLine
 10
372.75
 20
3425.0
 30
0.0
 11
372.75
 21
3415.5
 31
0.0
  0
LINE
  5
8E
330
1F
100
AcDbEntity
  8
0
  6
CONTINUOUS
 62
     7
100
AcDbLine
 10
1436.75
 20
3415.5
 30
0.0
 11
1436.75
 21
3413.0
 31
0.0
  0
LINE
  5
8F
330
1F
100
AcDbEntity
  8
0
  6
CONTINUOUS
 62
     7
100
AcDbLine
 10
1427.8251158052
 20
3413.0
 30
0.0
 11
1436.75
 21
3413.0
 31
0.0
  0
LINE
  5
90
330
1F
100
AcDbEntity
  8
0
  6
CONTINUOUS
 62
     7
100
AcDbLine
 10
372.75
 20
3415.5
 30
0.0
 11
363.25
 21
3415.5
 31
0.0
  0
ARC
  5
91
330
1F
100
AcDbEntity
  8
0
  6
CONTINUOUS
 62
     7
100
AcDbCircle
 10
372.75
 20
3415.5
 30
0.0
 40
9.5
100
AcDbArc
 50
90.0
 51
180.0
  0
LINE
  5
92
330
1F
100
AcDbEntity
  8
0
  6
CONTINUOUS
 62
     7
100
AcDbLine
 10
1423.8242522323
 20
3412.222005686
 30
0.0
 11
1423.8242522323
 21
3415.0
 31
0.0
  0
LINE
  5
93
330
1F
100
AcDbEntity
  8
0
  6
CONTINUOUS
 62
     7
100
AcDbLine
 10
1424.9790647592
 20
3413.0
 30
0.0
 11
1425.2783822385
 21
3413.0
 31
0.0
  0
LWPOLYLINE
  5
94
330
1F
100
AcDbEntity
  8
0
  6
CONTINUOUS
 62
     7
100
AcDbPolyline
 90
        3
 70
   128
 43
0.0
 10
1424.9790549278
 20
3412.9999995232
 10
1424.2639780045
 20
3412.6045674086
 10
1423.8242745399
 20
3412.2220098972
  0
LINE
  5
95
330
1F
100
AcDbEntity
  8
0
  6
CONTINUOUS
 62
     7
100
AcDbLine
 10
1421.272778511
 20
3409.9999934435
 30
0.0
 11
378.727221489
 21
3409.9999934435
 31
0.0
  0
ARC
  5
96
330
1F
100
AcDbEntity
  8
0
  6
CONTINUOUS
 62
     7
100
AcDbCircle
 10
388.676005432
 20
3423.9999020507
 30
0.0
 40
17.1748578728888
100
AcDbArc
 50
223.295688621
 51
234.6011781011
  0
LINE
  5
97
330
1F
100
AcDbEntity
  8
0
  6
CONTINUOUS
 62
     7
100
AcDbLine
 10
376.1757477677
 20
3412.222005686
 30
0.0
 11
376.1757477677
 21
3415.0
 31
0.0
  0
ARC
  5
98
330
1F
100
AcDbEntity
  8
0
  6
CONTINUOUS
 62
     7
100
AcDbCircle
 10
1407.3864888963
 20
3428.5212592477
 30
0.0
 40
23.14878671236505
100
AcDbArc
 50
306.8606709558
 51
315.2424623221
  0
LINE
  5
99
330
1F
100
AcDbEntity
  8
0
  6
CONTINUOUS
 62
     7
100
AcDbLine
 10
373.25
 20
3413.0
 30
0.0
 11
373.25
 21
3413.0404082058
 31
0.0
  0
ARC
  5
9A
330
1F
100
AcDbEntity
  8
0
  6
CONTINUOUS
 62
     7
100
AcDbCircle
 10
359.0974092802
 20
3414.8228631306
 30
0.0
 40
15.7301779052257
100
AcDbArc
 50
353.3454297819
 51
355.6621605819
  0
LINE
  5
9B
330
1F
100
AcDbEntity
  8
0
  6
CONTINUOUS
 62
     7
100
AcDbLine
 10
372.7500081062
 20
3413.0404114723
 30
0.0
 11
372.1748841948
 21
3413.0
 31
0.0
  0
LINE
  5
9C
330
1F
100
AcDbEntity
  8
0
  6
CONTINUOUS
 62
     7
100
AcDbLine
 10
363.25
 20
3413.0
 30
0.0
 11
372.1748841948
 21
3413.0
 31
0.0
  0
LINE
  5
9D
330
1F
100
AcDbEntity
  8
0
  6
CONTINUOUS
 62
     7
100
AcDbLine
 10
363.25
 20
3415.5
 30
0.0
 11
363.25
 21
3413.0
 31
0.0
  0
LWPOLYLINE
  5
9E
330
1F
100
AcDbEntity
  8
0
  6
CONTINUOUS
 62
     7
100
AcDbPolyline
 90
        3
 70
   128
 43
0.0
 10
375.0209450722
 20
3412.9999995232
 10
375.7360219955
 20
3412.6045674086
 10
376.1757254601
 20
3412.2220098972
  0
LINE
  5
9F
330
1F
100
AcDbEntity
  8
0
  6
CONTINUOUS
 62
     7
100
AcDbLine
 10
375.0209352408
 20
3413.0
 30
0.0
 11
374.7216177615
 21
3413.0
 31
0.0
  0
CIRCLE
  5
A0
330
1F
100
AcDbEntity
  8
0
  6
CONTINUOUS
 62
     7
100
AcDbCircle
 10
421.25
 20
3389.0
 30
0.0
 40
5.5
  0
ARC
  5
A1
330
1F
100
AcDbEntity
  8
0
  6
CONTINUOUS
 62
     7
100
AcDbCircle
 10
448.0
 20
3280.0
 30
0.0
 40
9.0
100
AcDbArc
 50
180.0
 51
229.8625904472
  0
ARC
  5
A2
330
1F
100
AcDbEntity
  8
0
  6
CONTINUOUS
 62
     7
100
AcDbCircle
 10
448.0
 20
3280.0
 30
0.0
 40
9.0
100
AcDbArc
 50
130.1374095528
 51
180.0
  0
CIRCLE
  5
A3
330
1F
100
AcDbEntity
  8
0
  6
CONTINUOUS
 62
     7
100
AcDbCircle
 10
421.25
 20
3011.0
 30
0.0
 40
5.5
  0
CIRCLE
  5
A4
330
1F
100
AcDbEntity
  8
0
  6
CONTINUOUS
 62
     7
100
AcDbCircle
 10
1378.75
 20
3011.0
 30
0.0
 40
5.5
  0
CIRCLE
  5
A5
330
1F
100
AcDbEntity
  8
0
  6
CONTINUOUS
 62
     7
100
AcDbCircle
 10
1378.75
 20
3389.0
 30
0.0
 40
5.5
  0
CIRCLE
  5
A6
330
1F
100
AcDbEntity
  8
0
  6
CONTINUOUS
 62
     7
100
AcDbCircle
 10
1382.0
 20
3060.0
 30
0.0
 40
8.999999999999773
  0
LWPOLYLINE
  5
A7
330
1F
100
AcDbEntity
  8
0
  6
CONTINUOUS
 62
     7
100
AcDbPolyline
 90
        6
 70
   128
 43
0.0
 10
1311.1373126507
 20
3395.1653212309
 10
1311.1485779285
 20
3395.1810866594
 10
1312.5055074692
 20
3397.0438361168
 10
1313.8707220554
 20
3398.8724768162
 10
1315.7131910324
 20
3401.3787329197
 10
1316.7500138283
 20
3403.006491065
  0
LINE
  5
A8
330
1F
100
AcDbEntity
  8
0
  6
CONTINUOUS
 62
     7
100
AcDbLine
 10
1316.7500138283
 20
3403.006491065
 30
0.0
 11
1316.7500138283
 21
2996.993508935
 31
0.0
  0
LWPOLYLINE
  5
A9
330
1F
100
AcDbEntity
  8
0
  6
CONTINUOUS
 62
     7
100
AcDbPolyline
 90
        6
 70
   128
 43
0.0
 10
1311.1373126507
 20
3004.8346787691
 10
1311.1485779285
 20
3004.8189133406
 10
1312.5055074692
 20
3002.9561638832
 10
1313.8707220554
 20
3001.1275231838
 10
1315.7131910324
 20
2998.6212670803
 10
1316.7500138283
 20
2996.993508935
  0
LINE
  5
AA
330
1F
100
AcDbEntity
  8
0
  6
CONTINUOUS
 62
     7
100
AcDbLine
 10
1311.1373126507
 20
3395.1653212309
 30
0.0
 11
1311.1373126507
 21
3004.8346787691
 31
0.0
  0
LWPOLYLINE
  5
AB
330
1F
100
AcDbEntity
  8
0
  6
CONTINUOUS
 62
     7
100
AcDbPolyline
 90
        7
 70
   128
 43
0.0
 10
1305.1931202412
 20
3403.5319209099
 10
1305.1712751389
 20
3402.3427933455
 10
1305.8731496334
 20
3400.4278898239
 10
1306.6741764545
 20
3398.9439129829
 10
1307.6342880726
 20
3397.4019110203
 10
1309.1566205025
 20
3395.1810866594
 10
1309.167855978
 20
3395.1653212309
  0
ARC
  5
AC
330
1F
100
AcDbEntity
  8
0
  6
CONTINUOUS
 62
     7
100
AcDbCircle
 10
1310.4194395706
 20
3401.7181713231
 30
0.0
 40
5.532097368683173
100
AcDbArc
 50
158.1706866883
 51
160.8611047131
  0
LINE
  5
AD
330
1F
100
AcDbEntity
  8
0
  6
CONTINUOUS
 62
     7
100
AcDbLine
 10
1305.284013049
 20
3403.7752383414
 30
0.0
 11
1317.2344505787
 21
3403.775241971
 31
0.0
  0
LINE
  5
AE
330
1F
100
AcDbEntity
  8
0
  6
CONTINUOUS
 62
     7
100
AcDbLine
 10
1316.7500138283
 20
3403.006491065
 30
0.0
 11
1317.2344505787
 21
3403.775241971
 31
0.0
  0
LINE
  5
AF
330
1F
100
AcDbEntity
  8
0
  6
CONTINUOUS
 62
     7
100
AcDbLine
 10
1309.167855978
 20
3395.1653212309
 30
0.0
 11
1311.1373126507
 21
3395.1653212309
 31
0.0
  0
LINE
  5
B0
330
1F
100
AcDbEntity
  8
0
  6
CONTINUOUS
 62
     7
100
AcDbLine
 10
1316.7500138283
 20
2996.993508935
 30
0.0
 11
1317.2344505787
 21
2996.224758029
 31
0.0
  0
LINE
  5
B1
330
1F
100
AcDbEntity
  8
0
  6
CONTINUOUS
 62
     7
100
AcDbLine
 10
1305.284013049
 20
2996.2247616586
 30
0.0
 11
1317.2344505787
 21
2996.224758029
 31
0.0
  0
ARC
  5
B2
330
1F
100
AcDbEntity
  8
0
  6
CONTINUOUS
 62
     7
100
AcDbCircle
 10
1310.4194395706
 20
2998.2818286769
 30
0.0
 40
5.532097368683496
100
AcDbArc
 50
199.1388952869
 51
201.8293133117
  0
LWPOLYLINE
  5
B3
330
1F
100
AcDbEntity
  8
0
  6
CONTINUOUS
 62
     7
100
AcDbPolyline
 90
        7
 70
   128
 43
0.0
 10
1305.1931202412
 20
2996.4680790901
 10
1305.1712751389
 20
2997.6572066545
 10
1305.8731496334
 20
2999.5721101761
 10
1306.6741764545
 20
3001.0560870171
 10
1307.6342880726
 20
3002.5980889797
 10
1309.1566205025
 20
3004.8189133406
 10
1309.167855978
 20
3004.8346787691
  0
LINE
  5
B4
330
1F
100
AcDbEntity
  8
0
  6
CONTINUOUS
 62
     7
100
AcDbLine
 10
1311.1373126507
 20
3004.8346787691
 30
0.0
 11
1309.167855978
 21
3004.8346787691
 31
0.0
  0
LINE
  5
B5
330
1F
100
AcDbEntity
  8
0
  6
CONTINUOUS
 62
     7
100
AcDbLine
 10
1309.167855978
 20
3395.1653212309
 30
0.0
 11
1309.167855978
 21
3004.8346787691
 31
0.0
  0
LINE
  5
B6
330
1F
100
AcDbEntity
  8
0
  6
CONTINUOUS
 62
     7
100
AcDbLine
 10
1317.2344505787
 20
3403.775241971
 30
0.0
 11
1320.3655421734
 21
3407.8756988049
 31
0.0
  0
LINE
  5
B7
330
1F
100
AcDbEntity
  8
0
  6
CONTINUOUS
 62
     7
100
AcDbLine
 10
1320.3655421734
 20
3407.8756988049
 30
0.0
 11
1321.133518219
 21
3408.6474299431
 31
0.0
  0
LINE
  5
B8
330
1F
100
AcDbEntity
  8
0
  6
CONTINUOUS
 62
     7
100
AcDbLine
 10
1321.133518219
 20
3408.6474299431
 30
0.0
 11
1321.5440452099
 21
3409.0000063181
 31
0.0
  0
SPLINE
  5
B9
330
1F
100
AcDbEntity
  8
0
  6
CONTINUOUS
 62
     7
100
AcDbSpline
210
0.0
220
0.0
230
1.0
 70
    28
 71
     3
 72
     9
 73
     5
 74
     0
 42
0.00000001
 43
0.00000001
 40
0.0
 40
0.0
 40
0.0
 40
0.0
 40
0.559999189579082
 40
1.0
 40
1.0
 40
1.0
 40
1.0
 10
1321.544045209885
 20
3409.000006318093
 30
0.0
 41
1.0
 10
1322.261536797626
 20
3409.000006318093
 30
0.0
 41
1.0
 10
1323.542773629917
 20
3409.000006318093
 30
0.0
 41
1.0
 10
1324.789126811849
 20
3409.000006318093
 30
0.0
 41
1.0
 10
1325.33752322197
 20
3409.000006318093
 30
0.0
 41
1.0
  0
LINE
  5
BA
330
1F
100
AcDbEntity
  8
0
  6
CONTINUOUS
 62
     7
100
AcDbLine
 10
1325.337523222
 20
3409.0000063181
 30
0.0
 11
1325.337523222
 21
3409.9999934435
 31
0.0
  0
LINE
  5
BB
330
1F
100
AcDbEntity
  8
0
  6
CONTINUOUS
 62
     7
100
AcDbLine
 10
1357.8016102314
 20
3409.9999934435
 30
0.0
 11
1357.8016102314
 21
2990.0000065565
 31
0.0
  0
LINE
  5
BC
330
1F
100
AcDbEntity
  8
0
  6
CONTINUOUS
 62
     7
100
AcDbLine
 10
1325.337523222
 20
2990.9999936819
 30
0.0
 11
1325.337523222
 21
2990.0000065565
 31
0.0
  0
SPLINE
  5
BD
330
1F
100
AcDbEntity
  8
0
  6
CONTINUOUS
 62
     7
100
AcDbSpline
210
0.0
220
0.0
230
1.0
 70
    28
 71
     3
 72
     9
 73
     5
 74
     0
 42
0.00000001
 43
0.00000001
 40
0.0
 40
0.0
 40
0.0
 40
0.0
 40
0.559999189579082
 40
1.0
 40
1.0
 40
1.0
 40
1.0
 10
1321.544045209885
 20
2990.999993681908
 30
0.0
 41
1.0
 10
1322.261536797626
 20
2990.999993681908
 30
0.0
 41
1.0
 10
1323.542773629917
 20
2990.999993681908
 30
0.0
 41
1.0
 10
1324.789126811849
 20
2990.999993681908
 30
0.0
 41
1.0
 10
1325.33752322197
 20
2990.999993681908
 30
0.0
 41
1.0
  0
LINE
  5
BE
330
1F
100
AcDbEntity
  8
0
  6
CONTINUOUS
 62
     7
100
AcDbLine
 10
1321.133518219
 20
2991.3525700569
 30
0.0
 11
1321.5440452099
 21
2990.9999936819
 31
0.0
  0
LINE
  5
BF
330
1F
100
AcDbEntity
  8
0
  6
CONTINUOUS
 62
     7
100
AcDbLine
 10
1320.3655421734
 20
2992.1243011951
 30
0.0
 11
1321.133518219
 21
2991.3525700569
 31
0.0
  0
LINE
  5
C0
330
1F
100
AcDbEntity
  8
0
  6
CONTINUOUS
 62
     7
100
AcDbLine
 10
1317.2344505787
 20
2996.224758029
 30
0.0
 11
1320.3655421734
 21
2992.1243011951
 31
0.0
  0
LWPOLYLINE
  5
C1
330
1F
100
AcDbEntity
  8
0
  6
CONTINUOUS
 62
     7
100
AcDbPolyline
 90
       20
 70
   128
 43
0.0
 10
1330.6862354279
 20
3297.999997437
 10
1330.7226240635
 20
3298.6910536885
 10
1330.827319622
 20
3299.304176867
 10
1330.9886395931
 20
3299.7729375958
 10
1331.1892390251
 20
3300.0453010201
 10
1331.4067959785
 20
3300.0872924924
 10
1331.6162467003
 20
3299.8907908797
 10
1331.7930042744
 20
3299.4776412845
 10
1331.9168627262
 20
3298.8973379135
 10
1331.9746494293
 20
3298.2186049223
 10
1331.9610893726
 20
3297.5186303258
 10
1331.8784475327
 20
3296.8738943338
 10
1331.7355155945
 20
3296.3538065553
 10
1331.5470457077
 20
3296.0158109665
 10
1331.333065033
 20
3295.9000214934
 10
1331.1176240444
 20
3296.0230082273
 10
1330.9261143208
 20
3296.3727161288
 10
1330.7814538479
 20
3296.9079062343
 10
1330.7004511356
 20
3297.5643321872
 10
1330.6862354279
 20
3297.999997437
  0
LWPOLYLINE
  5
C2
330
1F
100
AcDbEntity
  8
0
  6
CONTINUOUS
 62
     7
100
AcDbPolyline
 90
       20
 70
   128
 43
0.0
 10
1330.6862354279
 20
3102.000002563
 10
1330.7226240635
 20
3102.6910588145
 10
1330.827319622
 20
3103.3041745424
 10
1330.9886395931
 20
3103.7729427218
 10
1331.1892390251
 20
3104.0452986956
 10
1331.4067959785
 20
3104.0872901678
 10
1331.6162467003
 20
3103.8907885551
 10
1331.7930042744
 20
3103.4776389599
 10
1331.9168627262
 20
3102.8973355889
 10
1331.9746494293
 20
3102.2186025977
 10
1331.9610893726
 20
3101.5186354518
 10
1331.8784475327
 20
3100.8738920093
 10
1331.7355155945
 20
3100.3538042307
 10
1331.5470457077
 20
3100.0158160925
 10
1331.333065033
 20
3099.9000191689
 10
1331.1176240444
 20
3100.0230059028
 10
1330.9261143208
 20
3100.3727138042
 10
1330.7814538479
 20
3100.9079039097
 10
1330.7004511356
 20
3101.5643298626
 10
1330.6862354279
 20
3102.000002563
  0
LINE
  5
C3
330
1F
100
AcDbEntity
  8
0
  6
CONTINUOUS
 62
     7
100
AcDbLine
 10
1306.9314452063
 20
3407.8756934444
 30
0.0
 11
1305.284013049
 21
3403.7752383414
 31
0.0
  0
LINE
  5
C4
330
1F
100
AcDbEntity
  8
0
  6
CONTINUOUS
 62
     7
100
AcDbLine
 10
1306.9314452063
 20
3407.8756934444
 30
0.0
 11
1320.3655421734
 21
3407.8756988049
 31
0.0
  0
LINE
  5
C5
330
1F
100
AcDbEntity
  8
0
  6
CONTINUOUS
 62
     7
100
AcDbLine
 10
1306.9314452063
 20
2992.1243065556
 30
0.0
 11
1320.3655421734
 21
2992.1243011951
 31
0.0
  0
LINE
  5
C6
330
1F
100
AcDbEntity
  8
0
  6
CONTINUOUS
 62
     7
100
AcDbLine
 10
1306.9314452063
 20
2992.1243065556
 30
0.0
 11
1305.284013049
 21
2996.2247616586
 31
0.0
  0
LINE
  5
C7
330
1F
100
AcDbEntity
  8
0
  6
CONTINUOUS
 62
     7
100
AcDbLine
 10
1307.3406026359
 20
3408.6474252073
 30
0.0
 11
1321.133518219
 21
3408.6474299431
 31
0.0
  0
ARC
  5
C8
330
1F
100
AcDbEntity
  8
0
  6
CONTINUOUS
 62
     7
100
AcDbCircle
 10
1310.1245534649
 20
3406.6771144971
 30
0.0
 40
3.410637892430234
100
AcDbArc
 50
144.7112721743
 51
159.4254848217
  0
LINE
  5
C9
330
1F
100
AcDbEntity
  8
0
  6
CONTINUOUS
 62
     7
100
AcDbLine
 10
1307.3406026359
 20
2991.3525747927
 30
0.0
 11
1321.133518219
 21
2991.3525700569
 31
0.0
  0
ARC
  5
CA
330
1F
100
AcDbEntity
  8
0
  6
CONTINUOUS
 62
     7
100
AcDbCircle
 10
1310.1245534649
 20
2993.3228855029
 30
0.0
 40
3.410637892430017
100
AcDbArc
 50
200.5745151783
 51
215.2887278257
  0
LINE
  5
CB
330
1F
100
AcDbEntity
  8
0
  6
CONTINUOUS
 62
     7
100
AcDbLine
 10
1307.5603366397
 20
3409.0
 30
0.0
 11
1321.5440452099
 21
3409.0000063181
 31
0.0
  0
ARC
  5
CC
330
1F
100
AcDbEntity
  8
0
  6
CONTINUOUS
 62
     7
100
AcDbCircle
 10
1305.2470122598
 20
3410.1969639133
 30
0.0
 40
2.604655849512561
100
AcDbArc
 50
323.4938339201
 51
332.6422235856
  0
LINE
  5
CD
330
1F
100
AcDbEntity
  8
0
  6
CONTINUOUS
 62
     7
100
AcDbLine
 10
1307.5603366397
 20
2991.0
 30
0.0
 11
1321.5440452099
 21
2990.9999936819
 31
0.0
  0
ARC
  5
CE
330
1F
100
AcDbEntity
  8
0
  6
CONTINUOUS
 62
     7
100
AcDbCircle
 10
1305.2470122598
 20
2989.8030360867
 30
0.0
 40
2.604655849512804
100
AcDbArc
 50
27.3577764145
 51
36.5061660799
  0
LINE
  5
CF
330
1F
100
AcDbEntity
  8
0
  6
CONTINUOUS
 62
     7
100
AcDbLine
 10
1309.0602993965
 20
3409.9999934435
 30
0.0
 11
1309.0602993965
 21
3409.0000063181
 31
0.0
  0
LINE
  5
D0
330
1F
100
AcDbEntity
  8
0
  6
CONTINUOUS
 62
     7
100
AcDbLine
 10
1309.0602993965
 20
2990.0000065565
 30
0.0
 11
1309.0602993965
 21
2990.9999936819
 31
0.0
  0
LINE
  5
D1
330
1F
100
AcDbEntity
  8
0
  6
CONTINUOUS
 62
     7
100
AcDbLine
 10
483.2499861717
 20
3403.006491065
 30
0.0
 11
482.7655494213
 21
3403.775241971
 31
0.0
  0
LINE
  5
D2
330
1F
100
AcDbEntity
  8
0
  6
CONTINUOUS
 62
     7
100
AcDbLine
 10
494.715986951
 20
3403.7752383414
 30
0.0
 11
482.7655494213
 21
3403.775241971
 31
0.0
  0
ARC
  5
D3
330
1F
100
AcDbEntity
  8
0
  6
CONTINUOUS
 62
     7
100
AcDbCircle
 10
489.5805604294
 20
3401.7181713231
 30
0.0
 40
5.532097368683281
100
AcDbArc
 50
19.1388952869
 51
21.8293133117
  0
LWPOLYLINE
  5
D4
330
1F
100
AcDbEntity
  8
0
  6
CONTINUOUS
 62
     7
100
AcDbPolyline
 90
        7
 70
   128
 43
0.0
 10
494.8068797588
 20
3403.5319209099
 10
494.8287248611
 20
3402.3427933455
 10
494.1268503666
 20
3400.4278898239
 10
493.3258235455
 20
3398.9439129829
 10
492.3657119274
 20
3397.4019110203
 10
490.8433794975
 20
3395.1810866594
 10
490.832144022
 20
3395.1653212309
  0
LINE
  5
D5
330
1F
100
AcDbEntity
  8
0
  6
CONTINUOUS
 62
     7
100
AcDbLine
 10
488.8626873493
 20
3395.1653212309
 30
0.0
 11
490.832144022
 21
3395.1653212309
 31
0.0
  0
LWPOLYLINE
  5
D6
330
1F
100
AcDbEntity
  8
0
  6
CONTINUOUS
 62
     7
100
AcDbPolyline
 90
        6
 70
   128
 43
0.0
 10
488.8626873493
 20
3395.1653212309
 10
488.8514220715
 20
3395.1810866594
 10
487.4944925308
 20
3397.0438361168
 10
486.1292779446
 20
3398.8724768162
 10
484.2868089676
 20
3401.3787329197
 10
483.2499861717
 20
3403.006491065
  0
LWPOLYLINE
  5
D7
330
1F
100
AcDbEntity
  8
0
  6
CONTINUOUS
 62
     7
100
AcDbPolyline
 90
        6
 70
   128
 43
0.0
 10
488.8626873493
 20
3004.8346787691
 10
488.8514220715
 20
3004.8189133406
 10
487.4944925308
 20
3002.9561638832
 10
486.1292779446
 20
3001.1275231838
 10
484.2868089676
 20
2998.6212670803
 10
483.2499861717
 20
2996.993508935
  0
LINE
  5
D8
330
1F
100
AcDbEntity
  8
0
  6
CONTINUOUS
 62
     7
100
AcDbLine
 10
483.2499861717
 20
2996.993508935
 30
0.0
 11
483.2499861717
 21
3403.006491065
 31
0.0
  0
LINE
  5
D9
330
1F
100
AcDbEntity
  8
0
  6
CONTINUOUS
 62
     7
100
AcDbLine
 10
488.8626873493
 20
3004.8346787691
 30
0.0
 11
488.8626873493
 21
3395.1653212309
 31
0.0
  0
LWPOLYLINE
  5
DA
330
1F
100
AcDbEntity
  8
0
  6
CONTINUOUS
 62
     7
100
AcDbPolyline
 90
        7
 70
   128
 43
0.0
 10
494.8068797588
 20
2996.4680790901
 10
494.8287248611
 20
2997.6572066545
 10
494.1268503666
 20
2999.5721101761
 10
493.3258235455
 20
3001.0560870171
 10
492.3657119274
 20
3002.5980889797
 10
490.8433794975
 20
3004.8189133406
 10
490.832144022
 20
3004.8346787691
  0
ARC
  5
DB
330
1F
100
AcDbEntity
  8
0
  6
CONTINUOUS
 62
     7
100
AcDbCircle
 10
489.5805604294
 20
2998.2818286769
 30
0.0
 40
5.532097368683601
100
AcDbArc
 50
338.1706866883
 51
340.8611047131
  0
LINE
  5
DC
330
1F
100
AcDbEntity
  8
0
  6
CONTINUOUS
 62
     7
100
AcDbLine
 10
494.715986951
 20
2996.2247616586
 30
0.0
 11
482.7655494213
 21
2996.224758029
 31
0.0
  0
LINE
  5
DD
330
1F
100
AcDbEntity
  8
0
  6
CONTINUOUS
 62
     7
100
AcDbLine
 10
483.2499861717
 20
2996.993508935
 30
0.0
 11
482.7655494213
 21
2996.224758029
 31
0.0
  0
LINE
  5
DE
330
1F
100
AcDbEntity
  8
0
  6
CONTINUOUS
 62
     7
100
AcDbLine
 10
490.832144022
 20
3004.8346787691
 30
0.0
 11
488.8626873493
 21
3004.8346787691
 31
0.0
  0
LINE
  5
DF
330
1F
100
AcDbEntity
  8
0
  6
CONTINUOUS
 62
     7
100
AcDbLine
 10
490.832144022
 20
3004.8346787691
 30
0.0
 11
490.832144022
 21
3395.1653212309
 31
0.0
  0
LINE
  5
E0
330
1F
100
AcDbEntity
  8
0
  6
CONTINUOUS
 62
     7
100
AcDbLine
 10
482.7655494213
 20
2996.224758029
 30
0.0
 11
479.6344578266
 21
2992.1243011951
 31
0.0
  0
LINE
  5
E1
330
1F
100
AcDbEntity
  8
0
  6
CONTINUOUS
 62
     7
100
AcDbLine
 10
479.6344578266
 20
2992.1243011951
 30
0.0
 11
478.866481781
 21
2991.3525700569
 31
0.0
  0
LINE
  5
E2
330
1F
100
AcDbEntity
  8
0
  6
CONTINUOUS
 62
     7
100
AcDbLine
 10
478.866481781
 20
2991.3525700569
 30
0.0
 11
478.4559547901
 21
2990.9999936819
 31
0.0
  0
SPLINE
  5
E3
330
1F
100
AcDbEntity
  8
0
  6
CONTINUOUS
 62
     7
100
AcDbSpline
210
0.0
220
0.0
230
1.0
 70
    28
 71
     3
 72
     9
 73
     5
 74
     0
 42
0.00000001
 43
0.00000001
 40
0.0
 40
0.0
 40
0.0
 40
0.0
 40
0.559999189579082
 40
1.0
 40
1.0
 40
1.0
 40
1.0
 10
478.4559547901155
 20
2990.999993681908
 30
0.0
 41
1.0
 10
477.738463202374
 20
2990.999993681908
 30
0.0
 41
1.0
 10
476.4572263700836
 20
2990.999993681908
 30
0.0
 41
1.0
 10
475.2108731881514
 20
2990.999993681908
 30
0.0
 41
1.0
 10
474.6624767780305
 20
2990.999993681908
 30
0.0
 41
1.0
  0
LINE
  5
E4
330
1F
100
AcDbEntity
  8
0
  6
CONTINUOUS
 62
     7
100
AcDbLine
 10
474.662476778
 20
2990.9999936819
 30
0.0
 11
474.662476778
 21
2990.0000065565
 31
0.0
  0
LINE
  5
E5
330
1F
100
AcDbEntity
  8
0
  6
CONTINUOUS
 62
     7
100
AcDbLine
 10
442.1983897686
 20
2990.0000065565
 30
0.0
 11
442.1983897686
 21
3409.9999934435
 31
0.0
  0
LINE
  5
E6
330
1F
100
AcDbEntity
  8
0
  6
CONTINUOUS
 62
     7
100
AcDbLine
 10
474.662476778
 20
3409.0000063181
 30
0.0
 11
474.662476778
 21
3409.9999934435
 31
0.0
  0
SPLINE
  5
E7
330
1F
100
AcDbEntity
  8
0
  6
CONTINUOUS
 62
     7
100
AcDbSpline
210
0.0
220
0.0
230
1.0
 70
    28
 71
     3
 72
     9
 73
     5
 74
     0
 42
0.00000001
 43
0.00000001
 40
0.0
 40
0.0
 40
0.0
 40
0.0
 40
0.559999189579082
 40
1.0
 40
1.0
 40
1.0
 40
1.0
 10
478.4559547901155
 20
3409.000006318093
 30
0.0
 41
1.0
 10
477.738463202374
 20
3409.000006318093
 30
0.0
 41
1.0
 10
476.4572263700836
 20
3409.000006318093
 30
0.0
 41
1.0
 10
475.2108731881514
 20
3409.000006318093
 30
0.0
 41
1.0
 10
474.6624767780305
 20
3409.000006318093
 30
0.0
 41
1.0
  0
LINE
  5
E8
330
1F
100
AcDbEntity
  8
0
  6
CONTINUOUS
 62
     7
100
AcDbLine
 10
478.866481781
 20
3408.6474299431
 30
0.0
 11
478.4559547901
 21
3409.0000063181
 31
0.0
  0
LINE
  5
E9
330
1F
100
AcDbEntity
  8
0
  6
CONTINUOUS
 62
     7
100
AcDbLine
 10
479.6344578266
 20
3407.8756988049
 30
0.0
 11
478.866481781
 21
3408.6474299431
 31
0.0
  0
LINE
  5
EA
330
1F
100
AcDbEntity
  8
0
  6
CONTINUOUS
 62
     7
100
AcDbLine
 10
482.7655494213
 20
3403.775241971
 30
0.0
 11
479.6344578266
 21
3407.8756988049
 31
0.0
  0
LWPOLYLINE
  5
EB
330
1F
100
AcDbEntity
  8
0
  6
CONTINUOUS
 62
     7
100
AcDbPolyline
 90
       20
 70
   128
 43
0.0
 10
469.3137645721
 20
3102.000002563
 10
469.2773759365
 20
3101.3089463115
 10
469.172680378
 20
3100.695823133
 10
469.0113604069
 20
3100.2270624042
 10
468.8107609749
 20
3099.9546989799
 10
468.5932040215
 20
3099.9127075076
 10
468.3837532997
 20
3100.1092091203
 10
468.2069957256
 20
3100.5223587155
 10
468.0831372738
 20
3101.1026620865
 10
468.0253505707
 20
3101.7813950777
 10
468.0389106274
 20
3102.4813696742
 10
468.1215524673
 20
3103.1261056662
 10
468.2644844055
 20
3103.6461934447
 10
468.4529542923
 20
3103.9841890335
 10
468.666934967
 20
3104.0999785066
 10
468.8823759556
 20
3103.9769917727
 10
469.0738856792
 20
3103.6272838712
 10
469.2185461521
 20
3103.0920937657
 10
469.2995488644
 20
3102.4356678128
 10
469.3137645721
 20
3102.000002563
  0
LWPOLYLINE
  5
EC
330
1F
100
AcDbEntity
  8
0
  6
CONTINUOUS
 62
     7
100
AcDbPolyline
 90
       20
 70
   128
 43
0.0
 10
469.3137645721
 20
3297.999997437
 10
469.2773759365
 20
3297.3089411855
 10
469.172680378
 20
3296.6958254576
 10
469.0113604069
 20
3296.2270572782
 10
468.8107609749
 20
3295.9547013044
 10
468.5932040215
 20
3295.9127098322
 10
468.3837532997
 20
3296.1092114449
 10
468.2069957256
 20
3296.5223610401
 10
468.0831372738
 20
3297.1026644111
 10
468.0253505707
 20
3297.7813974023
 10
468.0389106274
 20
3298.4813645482
 10
468.1215524673
 20
3299.1261079907
 10
468.2644844055
 20
3299.6461957693
 10
468.4529542923
 20
3299.9841839075
 10
468.666934967
 20
3300.0999808311
 10
468.8823759556
 20
3299.9769940972
 10
469.0738856792
 20
3299.6272861958
 10
469.2185461521
 20
3299.0920960903
 10
469.2995488644
 20
3298.4356701374
 10
469.3137645721
 20
3297.999997437
  0
LINE
  5
ED
330
1F
100
AcDbEntity
  8
0
  6
CONTINUOUS
 62
     7
100
AcDbLine
 10
493.0685547937
 20
3407.8756934444
 30
0.0
 11
479.6344578266
 21
3407.8756988049
 31
0.0
  0
LINE
  5
EE
330
1F
100
AcDbEntity
  8
0
  6
CONTINUOUS
 62
     7
100
AcDbLine
 10
493.0685547937
 20
3407.8756934444
 30
0.0
 11
494.715986951
 21
3403.7752383414
 31
0.0
  0
LINE
  5
EF
330
1F
100
AcDbEntity
  8
0
  6
CONTINUOUS
 62
     7
100
AcDbLine
 10
493.0685547937
 20
2992.1243065556
 30
0.0
 11
494.715986951
 21
2996.2247616586
 31
0.0
  0
LINE
  5
F0
330
1F
100
AcDbEntity
  8
0
  6
CONTINUOUS
 62
     7
100
AcDbLine
 10
493.0685547937
 20
2992.1243065556
 30
0.0
 11
479.6344578266
 21
2992.1243011951
 31
0.0
  0
LINE
  5
F1
330
1F
100
AcDbEntity
  8
0
  6
CONTINUOUS
 62
     7
100
AcDbLine
 10
492.6593973641
 20
3408.6474252073
 30
0.0
 11
478.866481781
 21
3408.6474299431
 31
0.0
  0
ARC
  5
F2
330
1F
100
AcDbEntity
  8
0
  6
CONTINUOUS
 62
     7
100
AcDbCircle
 10
489.8754465351
 20
3406.6771144971
 30
0.0
 40
3.410637892430327
100
AcDbArc
 50
20.5745151783
 51
35.2887278257
  0
LINE
  5
F3
330
1F
100
AcDbEntity
  8
0
  6
CONTINUOUS
 62
     7
100
AcDbLine
 10
492.6593973641
 20
2991.3525747927
 30
0.0
 11
478.866481781
 21
2991.3525700569
 31
0.0
  0
ARC
  5
F4
330
1F
100
AcDbEntity
  8
0
  6
CONTINUOUS
 62
     7
100
AcDbCircle
 10
489.8754465351
 20
2993.3228855029
 30
0.0
 40
3.410637892430123
100
AcDbArc
 50
324.7112721743
 51
339.4254848217
  0
LINE
  5
F5
330
1F
100
AcDbEntity
  8
0
  6
CONTINUOUS
 62
     7
100
AcDbLine
 10
492.4396633603
 20
2991.0
 30
0.0
 11
478.4559547901
 21
2990.9999936819
 31
0.0
  0
ARC
  5
F6
330
1F
100
AcDbEntity
  8
0
  6
CONTINUOUS
 62
     7
100
AcDbCircle
 10
494.7529877402
 20
2989.8030360867
 30
0.0
 40
2.604655849512712
100
AcDbArc
 50
143.4938339201
 51
152.6422235855
  0
LINE
  5
F7
330
1F
100
AcDbEntity
  8
0
  6
CONTINUOUS
 62
     7
100
AcDbLine
 10
492.4396633603
 20
3409.0
 30
0.0
 11
478.4559547901
 21
3409.0000063181
 31
0.0
  0
ARC
  5
F8
330
1F
100
AcDbEntity
  8
0
  6
CONTINUOUS
 62
     7
100
AcDbCircle
 10
494.7529877402
 20
3410.1969639133
 30
0.0
 40
2.60465584951246
100
AcDbArc
 50
207.3577764144
 51
216.5061660799
  0
LINE
  5
F9
330
1F
100
AcDbEntity
  8
0
  6
CONTINUOUS
 62
     7
100
AcDbLine
 10
490.9397006035
 20
3409.9999934435
 30
0.0
 11
490.9397006035
 21
3409.0000063181
 31
0.0
  0
LINE
  5
FA
330
1F
100
AcDbEntity
  8
0
  6
CONTINUOUS
 62
     7
100
AcDbLine
 10
490.9397006035
 20
2990.0000065565
 30
0.0
 11
490.9397006035
 21
2990.9999936819
 31
0.0
  0
LINE
  5
FB
330
1F
100
AcDbEntity
  8
0
  6
CONTINUOUS
 62
     7
100
AcDbLine
 10
442.1983897686
 20
3409.9999934435
 30
0.0
 11
442.1983897686
 21
2990.0000065565
 31
0.0
  0
LINE
  5
FC
330
1F
100
AcDbEntity
  8
0
  6
CONTINUOUS
 62
     7
100
AcDbLine
 10
1357.8016102314
 20
2990.0000065565
 30
0.0
 11
1357.8016102314
 21
3409.9999934435
 31
0.0
  0
LINE
  5
FD
330
1F
100
AcDbEntity
  8
0
  6
CONTINUOUS
 62
     7
100
AcDbLine
 10
373.25
 20
2987.0
 30
0.0
 11
372.75
 21
2987.0
 31
0.0
  0
LINE
  5
FE
330
1F
100
AcDbEntity
  8
0
  6
CONTINUOUS
 62
     7
100
AcDbLine
 10
372.75
 20
2987.0
 30
0.0
 11
372.75
 21
3413.0
 31
0.0
  0
LINE
  5
FF
330
1F
100
AcDbEntity
  8
0
  6
CONTINUOUS
 62
     7
100
AcDbLine
 10
373.25
 20
3413.0
 30
0.0
 11
372.75
 21
3413.0
 31
0.0
  0
LINE
  5
100
330
1F
100
AcDbEntity
  8
0
  6
CONTINUOUS
 62
     7
100
AcDbLine
 10
373.25
 20
2987.0
 30
0.0
 11
373.25
 21
3413.0
 31
0.0
  0
LINE
  5
101
330
1F
100
AcDbEntity
  8
0
  6
CONTINUOUS
 62
     7
100
AcDbLine
 10
363.25
 20
2987.0
 30
0.0
 11
363.25
 21
3413.0
 31
0.0
  0
LINE
  5
102
330
1F
100
AcDbEntity
  8
0
  6
CONTINUOUS
 62
     7
100
AcDbLine
 10
372.75
 20
3413.0
 30
0.0
 11
363.25
 21
3413.0
 31
0.0
  0
LINE
  5
103
330
1F
100
AcDbEntity
  8
0
  6
CONTINUOUS
 62
     7
100
AcDbLine
 10
372.75
 20
2987.0
 30
0.0
 11
363.25
 21
2987.0
 31
0.0
  0
LINE
  5
104
330
1F
100
AcDbEntity
  8
0
  6
CONTINUOUS
 62
     7
100
AcDbLine
 10
378.2500267029
 20
2989.6617501974
 30
0.0
 11
378.2500267029
 21
3410.3382498026
 31
0.0
  0
LINE
  5
105
330
1F
100
AcDbEntity
  8
0
  6
CONTINUOUS
 62
     7
100
AcDbLine
 10
374.6200428483
 20
3413.0
 30
0.0
 11
373.25
 21
3413.0
 31
0.0
  0
LINE
  5
106
330
1F
100
AcDbEntity
  8
0
  6
CONTINUOUS
 62
     7
100
AcDbLine
 10
374.6200428484
 20
2987.0
 30
0.0
 11
373.25
 21
2987.0
 31
0.0
  0
LINE
  5
107
330
1F
100
AcDbEntity
  8
0
  6
CONTINUOUS
 62
     7
100
AcDbLine
 10
372.75
 20
2984.5
 30
0.0
 11
372.7500081062
 21
2986.9595885277
 31
0.0
  0
LINE
  5
108
330
1F
100
AcDbEntity
  8
0
  6
CONTINUOUS
 62
     7
100
AcDbLine
 10
363.25
 20
2984.5
 30
0.0
 11
372.75
 21
2984.5
 31
0.0
  0
LINE
  5
109
330
1F
100
AcDbEntity
  8
0
  6
CONTINUOUS
 62
     7
100
AcDbLine
 10
363.25
 20
2984.5
 30
0.0
 11
363.25
 21
2987.0
 31
0.0
  0
LINE
  5
10A
330
1F
100
AcDbEntity
  8
0
  6
CONTINUOUS
 62
     7
100
AcDbLine
 10
372.1748841948
 20
2987.0
 30
0.0
 11
363.25
 21
2987.0
 31
0.0
  0
LINE
  5
10B
330
1F
100
AcDbEntity
  8
0
  6
CONTINUOUS
 62
     7
100
AcDbLine
 10
372.7500081062
 20
2986.9595885277
 30
0.0
 11
372.1748841948
 21
2987.0
 31
0.0
  0
ARC
  5
10C
330
1F
100
AcDbEntity
  8
0
  6
CONTINUOUS
 62
     7
100
AcDbCircle
 10
1427.25
 20
2984.5
 30
0.0
 40
9.5
100
AcDbArc
 50
270.0
 51
0.0
  0
LINE
  5
10D
330
1F
100
AcDbEntity
  8
0
  6
CONTINUOUS
 62
     7
100
AcDbLine
 10
1427.25
 20
2984.5
 30
0.0
 11
1427.25
 21
2975.0
 31
0.0
  0
LINE
  5
10E
330
1F
100
AcDbEntity
  8
0
  6
CONTINUOUS
 62
     7
100
AcDbLine
 10
1427.25
 20
2984.5
 30
0.0
 11
1436.75
 21
2984.5
 31
0.0
  0
LINE
  5
10F
330
1F
100
AcDbEntity
  8
0
  6
CONTINUOUS
 62
     7
100
AcDbLine
 10
372.75
 20
2984.5
 30
0.0
 11
372.75
 21
2975.0
 31
0.0
  0
ARC
  5
110
330
1F
100
AcDbEntity
  8
0
  6
CONTINUOUS
 62
     7
100
AcDbCircle
 10
372.75
 20
2984.5
 30
0.0
 40
9.5
100
AcDbArc
 50
180.0
 51
270.0
  0
ARC
  5
111
330
1F
100
AcDbEntity
  8
0
  6
CONTINUOUS
 62
     7
100
AcDbCircle
 10
373.2669308041
 20
2984.7256130508
 30
0.0
 40
2.234039846756685
100
AcDbArc
 50
47.2804555547
 51
90.4349451852
  0
LINE
  5
112
330
1F
100
AcDbEntity
  8
0
  6
CONTINUOUS
 62
     7
100
AcDbLine
 10
373.25
 20
2986.9595917942
 30
0.0
 11
373.25
 21
2987.0
 31
0.0
  0
ARC
  5
113
330
1F
100
AcDbEntity
  8
0
  6
CONTINUOUS
 62
     7
100
AcDbCircle
 10
359.0974092802
 20
2985.1771368694
 30
0.0
 40
15.73017790522574
100
AcDbArc
 50
4.3378394181
 51
6.6545702181
  0
LINE
  5
114
330
1F
100
AcDbEntity
  8
0
  6
CONTINUOUS
 62
     7
100
AcDbLine
 10
373.25
 20
2986.9595917942
 30
0.0
 11
372.7500081062
 21
2986.9595885277
 31
0.0
  0
LINE
  5
115
330
1F
100
AcDbEntity
  8
0
  6
CONTINUOUS
 62
     7
100
AcDbLine
 10
1426.75
 20
2986.9595917942
 30
0.0
 11
1426.75
 21
2987.0
 31
0.0
  0
ARC
  5
116
330
1F
100
AcDbEntity
  8
0
  6
CONTINUOUS
 62
     7
100
AcDbCircle
 10
1426.7330691959
 20
2984.7256130508
 30
0.0
 40
2.234039846756569
100
AcDbArc
 50
89.5650548148
 51
132.7195444453
  0
ARC
  5
117
330
1F
100
AcDbEntity
  8
0
  6
CONTINUOUS
 62
     7
100
AcDbCircle
 10
1440.9025907198
 20
2985.1771368694
 30
0.0
 40
15.73017790522545
100
AcDbArc
 50
173.3454297819
 51
175.6621605819
  0
LINE
  5
118
330
1F
100
AcDbEntity
  8
0
  6
CONTINUOUS
 62
     7
100
AcDbLine
 10
1427.25
 20
2984.5
 30
0.0
 11
1427.2499918938
 21
2986.9595885277
 31
0.0
  0
LINE
  5
119
330
1F
100
AcDbEntity
  8
0
  6
CONTINUOUS
 62
     7
100
AcDbLine
 10
372.75
 20
2984.5
 30
0.0
 11
1427.25
 21
2984.5
 31
0.0
  0
LWPOLYLINE
  5
11A
330
1F
100
AcDbEntity
  8
0
  6
CONTINUOUS
 62
     7
100
AcDbPolyline
 90
        3
 70
   128
 43
0.0
 10
376.1757254601
 20
2984.9999964237
 10
376.1657714844
 20
2985.0099951029
 10
374.7825264931
 20
2986.3669246435
  0
LINE
  5
11B
330
1F
100
AcDbEntity
  8
0
  6
CONTINUOUS
 62
     7
100
AcDbLine
 10
376.1757477677
 20
2985.0
 30
0.0
 11
1423.8242522323
 21
2985.0
 31
0.0
  0
LWPOLYLINE
  5
11C
330
1F
100
AcDbEntity
  8
0
  6
CONTINUOUS
 62
     7
100
AcDbPolyline
 90
        3
 70
   128
 43
0.0
 10
1423.8242745399
 20
2984.9999964237
 10
1423.8342285156
 20
2985.0099951029
 10
1425.2174735069
 20
2986.3669246435
  0
LINE
  5
11D
330
1F
100
AcDbEntity
  8
0
  6
CONTINUOUS
 62
     7
100
AcDbLine
 10
1426.75
 20
2986.9595917942
 30
0.0
 11
1427.2499918938
 21
2986.9595885277
 31
0.0
  0
LINE
  5
11E
330
1F
100
AcDbEntity
  8
0
  6
CONTINUOUS
 62
     7
100
AcDbLine
 10
376.1757477677
 20
2985.0
 30
0.0
 11
376.1757477677
 21
2987.777994314
 31
0.0
  0
LINE
  5
11F
330
1F
100
AcDbEntity
  8
0
  6
CONTINUOUS
 62
     7
100
AcDbLine
 10
375.0209352408
 20
2987.0
 30
0.0
 11
374.7216177615
 21
2987.0
 31
0.0
  0
LWPOLYLINE
  5
120
330
1F
100
AcDbEntity
  8
0
  6
CONTINUOUS
 62
     7
100
AcDbPolyline
 90
        3
 70
   128
 43
0.0
 10
375.0209450722
 20
2987.0000004768
 10
375.7360219955
 20
2987.3954325914
 10
376.1757254601
 20
2987.7779901028
  0
LINE
  5
121
330
1F
100
AcDbEntity
  8
0
  6
CONTINUOUS
 62
     7
100
AcDbLine
 10
378.727221489
 20
2990.0000065565
 30
0.0
 11
1421.272778511
 21
2990.0000065565
 31
0.0
  0
ARC
  5
122
330
1F
100
AcDbEntity
  8
0
  6
CONTINUOUS
 62
     7
100
AcDbCircle
 10
1411.323994568
 20
2976.0000979493
 30
0.0
 40
17.17485787288924
100
AcDbArc
 50
43.295688621
 51
54.6011781011
  0
LINE
  5
123
330
1F
100
AcDbEntity
  8
0
  6
CONTINUOUS
 62
     7
100
AcDbLine
 10
1423.8242522323
 20
2985.0
 30
0.0
 11
1423.8242522323
 21
2987.777994314
 31
0.0
  0
ARC
  5
124
330
1F
100
AcDbEntity
  8
0
  6
CONTINUOUS
 62
     7
100
AcDbCircle
 10
392.6135111037
 20
2971.4787407523
 30
0.0
 40
23.14878671236448
100
AcDbArc
 50
126.8606709558
 51
135.2424623221
  0
LWPOLYLINE
  5
125
330
1F
100
AcDbEntity
  8
0
  6
CONTINUOUS
 62
     7
100
AcDbPolyline
 90
        3
 70
   128
 43
0.0
 10
1424.9790549278
 20
2987.0000004768
 10
1424.2639780045
 20
2987.3954325914
 10
1423.8242745399
 20
2987.7779901028
  0
LINE
  5
126
330
1F
100
AcDbEntity
  8
0
  6
CONTINUOUS
 62
     7
100
AcDbLine
 10
1424.9790647592
 20
2987.0
 30
0.0
 11
1425.2783822385
 21
2987.0
 31
0.0
  0
LINE
  5
127
330
1F
100
AcDbEntity
  8
0
  6
CONTINUOUS
 62
     7
100
AcDbLine
 10
1427.2499918938
 20
2986.9595885277
 30
0.0
 11
1427.8251158052
 21
2987.0
 31
0.0
  0
LINE
  5
128
330
1F
100
AcDbEntity
  8
0
  6
CONTINUOUS
 62
     7
100
AcDbLine
 10
1427.25
 20
2975.0
 30
0.0
 11
372.75
 21
2975.0
 31
0.0
  0
LINE
  5
129
330
1F
100
AcDbEntity
  8
0
  6
CONTINUOUS
 62
     7
100
AcDbLine
 10
1436.75
 20
2987.0
 30
0.0
 11
1427.8251158052
 21
2987.0
 31
0.0
  0
LINE
  5
12A
330
1F
100
AcDbEntity
  8
0
  6
CONTINUOUS
 62
     7
100
AcDbLine
 10
1436.75
 20
2984.5
 30
0.0
 11
1436.75
 21
2987.0
 31
0.0
  0
LINE
  5
12B
330
1F
100
AcDbEntity
  8
0
  6
CONTINUOUS
 62
     7
100
AcDbLine
 10
1427.25
 20
3413.0
 30
0.0
 11
1436.75
 21
3413.0
 31
0.0
  0
LINE
  5
12C
330
1F
100
AcDbEntity
  8
0
  6
CONTINUOUS
 62
     7
100
AcDbLine
 10
1436.75
 20
3413.0
 30
0.0
 11
1436.75
 21
2987.0
 31
0.0
  0
LINE
  5
12D
330
1F
100
AcDbEntity
  8
0
  6
CONTINUOUS
 62
     7
100
AcDbLine
 10
1427.25
 20
2987.0
 30
0.0
 11
1436.75
 21
2987.0
 31
0.0
  0
LINE
  5
12E
330
1F
100
AcDbEntity
  8
0
  6
CONTINUOUS
 62
     7
100
AcDbLine
 10
1427.25
 20
3413.0
 30
0.0
 11
1427.25
 21
2987.0
 31
0.0
  0
LINE
  5
12F
330
1F
100
AcDbEntity
  8
0
  6
CONTINUOUS
 62
     7
100
AcDbLine
 10
1426.75
 20
3413.0
 30
0.0
 11
1426.75
 21
2987.0
 31
0.0
  0
LINE
  5
130
330
1F
100
AcDbEntity
  8
0
  6
CONTINUOUS
 62
     7
100
AcDbLine
 10
1426.75
 20
2987.0
 30
0.0
 11
1427.25
 21
2987.0
 31
0.0
  0
LINE
  5
131
330
1F
100
AcDbEntity
  8
0
  6
CONTINUOUS
 62
     7
100
AcDbLine
 10
1426.75
 20
3413.0
 30
0.0
 11
1427.25
 21
3413.0
 31
0.0
  0
LINE
  5
132
330
1F
100
AcDbEntity
  8
0
  6
CONTINUOUS
 62
     7
100
AcDbLine
 10
1421.7499732971
 20
3410.3382498026
 30
0.0
 11
1421.7499732971
 21
2989.6617501974
 31
0.0
  0
LINE
  5
133
330
1F
100
AcDbEntity
  8
0
  6
CONTINUOUS
 62
     7
100
AcDbLine
 10
1425.3799571516
 20
2987.0
 30
0.0
 11
1426.75
 21
2987.0
 31
0.0
  0
LINE
  5
134
330
1F
100
AcDbEntity
  8
0
  6
CONTINUOUS
 62
     7
100
AcDbLine
 10
1425.3799571517
 20
3413.0
 30
0.0
 11
1426.75
 21
3413.0
 31
0.0
  0
ARC
  5
135
330
1F
100
AcDbEntity
  8
0
  6
CONTINUOUS
 62
     7
100
AcDbCircle
 10
1267.6301791151
 20
3111.1112702003
 30
0.0
 40
173.5286273145111
100
AcDbArc
 50
11.8237701463
 51
12.0183212815
  0
LWPOLYLINE
  5
136
330
1F
100
AcDbEntity
  8
0
  6
CONTINUOUS
 62
     7
100
AcDbPolyline
 90
        9
 70
   128
 43
0.0
 10
1437.4769568443
 20
3146.6676563025
 10
1437.5066995621
 20
3146.511823684
 10
1437.5303030014
 20
3146.3588669896
 10
1437.5446081162
 20
3146.2288506329
 10
1437.5484228134
 20
3146.1365528405
 10
1437.5417470932
 20
3146.0901506245
 10
1437.5254154205
 20
3146.0931755602
 10
1437.5009179115
 20
3146.1456052959
 10
1437.4769568443
 20
3146.2208114564
  0
LWPOLYLINE
  5
137
330
1F
100
AcDbEntity
  8
0
  6
CONTINUOUS
 62
     7
100
AcDbPolyline
 90
       12
 70
   128
 43
0.0
 10
1437.4769568443
 20
3146.2208114564
 10
1437.4438762665
 20
3146.3119283319
 10
1437.4115109444
 20
3146.3541395962
 10
1437.3836755753
 20
3146.3420398533
 10
1437.3640060425
 20
3146.2776184082
 10
1437.3547077179
 20
3146.170527488
 10
1437.3562574387
 20
3146.0346139967
 10
1437.3681783676
 20
3145.8846524358
 10
1437.3890995979
 20
3145.7353241742
 10
1437.417113781
 20
3145.6016495824
 10
1437.4494194984
 20
3145.4988874495
 10
1437.4769568443
 20
3145.4468488693
  0
ARC
  5
138
330
1F
100
AcDbEntity
  8
0
  6
CONTINUOUS
 62
     7
100
AcDbCircle
 10
1436.271870806
 20
3145.000000298
 30
0.0
 40
1.285264955319569
100
AcDbArc
 50
339.6551080621
 51
20.3448919379
  0
LWPOLYLINE
  5
139
330
1F
100
AcDbEntity
  8
0
  6
CONTINUOUS
 62
     7
100
AcDbPolyline
 90
       12
 70
   128
 43
0.0
 10
1437.4769568443
 20
3144.5531517267
 10
1437.4439954758
 20
3144.4869235158
 10
1437.411570549
 20
3144.3756565452
 10
1437.3837351799
 20
3144.2322328687
 10
1437.3640656471
 20
3144.0752342343
 10
1437.3547077179
 20
3143.9241811633
 10
1437.3562574387
 20
3143.7955208123
 10
1437.368118763
 20
3143.7014535069
 10
1437.3890399933
 20
3143.650778383
 10
1437.4170541763
 20
3143.6495006084
 10
1437.4493598938
 20
3143.6998590827
 10
1437.4769568443
 20
3143.7791891396
  0
ARC
  5
13A
330
1F
100
AcDbEntity
  8
0
  6
CONTINUOUS
 62
     7
100
AcDbCircle
 10
1436.1704626324
 20
3143.7541580679
 30
0.0
 40
1.372899845580105
100
AcDbArc
 50
342.1068449045
 51
6.478857746
  0
LWPOLYLINE
  5
13B
330
1F
100
AcDbEntity
  8
0
  6
CONTINUOUS
 62
     7
100
AcDbPolyline
 90
        7
 70
   128
 43
0.0
 10
1437.4769568443
 20
3143.3323442936
 10
1437.4438762665
 20
3143.1746415794
 10
1437.4114513397
 20
3143.0210441351
 10
1437.3836755753
 20
3142.8896643221
 10
1437.3640060425
 20
3142.7971020341
 10
1437.3547077179
 20
3142.7532032132
 10
1437.3552441597
 20
3142.7558258176
  0
LINE
  5
13C
330
1F
100
AcDbEntity
  8
0
  6
CONTINUOUS
 62
     7
100
AcDbLine
 10
1408.95
 20
3147.5
 30
0.0
 11
1408.95
 21
3142.5
 31
0.0
  0
ARC
  5
13D
330
1F
100
AcDbEntity
  8
0
  6
CONTINUOUS
 62
     7
100
AcDbCircle
 10
1267.4150126662
 20
3206.0658475004
 30
0.0
 40
173.7485361895161
100
AcDbArc
 50
11.8238932655
 51
12.0181981623
  0
LWPOLYLINE
  5
13E
330
1F
100
AcDbEntity
  8
0
  6
CONTINUOUS
 62
     7
100
AcDbPolyline
 90
        9
 70
   128
 43
0.0
 10
1437.4769568443
 20
3241.6676588356
 10
1437.5066995621
 20
3241.5118224919
 10
1437.5303030014
 20
3241.3588695228
 10
1437.5446081162
 20
3241.2288494408
 10
1437.5484228134
 20
3241.1365516484
 10
1437.5417470932
 20
3241.0901494324
 10
1437.5254154205
 20
3241.0931780934
 10
1437.5009179115
 20
3241.1456078291
 10
1437.4769568443
 20
3241.2208102643
  0
LWPOLYLINE
  5
13F
330
1F
100
AcDbEntity
  8
0
  6
CONTINUOUS
 62
     7
100
AcDbPolyline
 90
       12
 70
   128
 43
0.0
 10
1437.4769568443
 20
3241.2208102643
 10
1437.4438762665
 20
3241.3119271398
 10
1437.4115109444
 20
3241.3541384041
 10
1437.3836755753
 20
3241.3420423865
 10
1437.3640060425
 20
3241.2776172161
 10
1437.3547077179
 20
3241.1705262959
 10
1437.3562574387
 20
3241.0346165299
 10
1437.3681783676
 20
3240.8846512437
 10
1437.3890995979
 20
3240.7353267074
 10
1437.417113781
 20
3240.6016483903
 10
1437.4494194984
 20
3240.4988862574
 10
1437.4769568443
 20
3240.4468476772
  0
ARC
  5
140
330
1F
100
AcDbEntity
  8
0
  6
CONTINUOUS
 62
     7
100
AcDbCircle
 10
1436.2718924305
 20
3240.0000009686
 30
0.0
 40
1.285244032241854
100
AcDbArc
 50
339.6548507591
 51
20.3451492409
  0
LWPOLYLINE
  5
141
330
1F
100
AcDbEntity
  8
0
  6
CONTINUOUS
 62
     7
100
AcDbPolyline
 90
       12
 70
   128
 43
0.0
 10
1437.4769568443
 20
3239.5531542599
 10
1437.4439954758
 20
3239.4869223237
 10
1437.411570549
 20
3239.3756553531
 10
1437.3837351799
 20
3239.2322354019
 10
1437.3640656471
 20
3239.0752367675
 10
1437.3547077179
 20
3238.9241799712
 10
1437.3562574387
 20
3238.7955233455
 10
1437.368118763
 20
3238.7014560401
 10
1437.3890399933
 20
3238.6507771909
 10
1437.4170541763
 20
3238.6494994164
 10
1437.4493598938
 20
3238.6998578906
 10
1437.4769568443
 20
3238.7791916728
  0
ARC
  5
142
330
1F
100
AcDbEntity
  8
0
  6
CONTINUOUS
 62
     7
100
AcDbCircle
 10
1436.1704126633
 20
3238.7541628703
 30
0.0
 40
1.372949239494641
100
AcDbArc
 50
342.1072475381
 51
6.4785283544
  0
LWPOLYLINE
  5
143
330
1F
100
AcDbEntity
  8
0
  6
CONTINUOUS
 62
     7
100
AcDbPolyline
 90
        7
 70
   128
 43
0.0
 10
1437.4769568443
 20
3238.3323431015
 10
1437.4438762665
 20
3238.1746403873
 10
1437.4114513397
 20
3238.0210466683
 10
1437.3836755753
 20
3237.88966313
 10
1437.3640060425
 20
3237.797100842
 10
1437.3547077179
 20
3237.7532057464
 10
1437.3552441597
 20
3237.7558246255
  0
LINE
  5
144
330
1F
100
AcDbEntity
  8
0
  6
CONTINUOUS
 62
     7
100
AcDbLine
 10
1408.95
 20
3242.5
 30
0.0
 11
1408.95
 21
3237.5
 31
0.0
  0
LINE
  5
145
330
1F
100
AcDbEntity
  8
0
  6
CONTINUOUS
 62
     7
100
AcDbLine
 10
1414.9000287056
 20
3301.4999970794
 30
0.0
 11
1421.7499732971
 21
3301.4999970794
 31
0.0
  0
LINE
  5
146
330
1F
100
AcDbEntity
  8
0
  6
CONTINUOUS
 62
     7
100
AcDbLine
 10
1414.9000287056
 20
3301.4999970794
 30
0.0
 11
1414.9000287056
 21
3309.999999404
 31
0.0
  0
LINE
  5
147
330
1F
100
AcDbEntity
  8
0
  6
CONTINUOUS
 62
     7
100
AcDbLine
 10
1414.9000287056
 20
3309.999999404
 30
0.0
 11
1421.7499732971
 21
3309.999999404
 31
0.0
  0
LINE
  5
148
330
1F
100
AcDbEntity
  8
0
  6
CONTINUOUS
 62
     7
100
AcDbLine
 10
1414.9000287056
 20
3318.5000017285
 30
0.0
 11
1421.7499732971
 21
3318.5000017285
 31
0.0
  0
LINE
  5
149
330
1F
100
AcDbEntity
  8
0
  6
CONTINUOUS
 62
     7
100
AcDbLine
 10
1414.9000287056
 20
3309.999999404
 30
0.0
 11
1414.9000287056
 21
3318.5000017285
 31
0.0
  0
LINE
  5
14A
330
1F
100
AcDbEntity
  8
0
  6
CONTINUOUS
 62
     7
100
AcDbLine
 10
1414.9000287056
 20
3090.000000596
 30
0.0
 11
1421.7499732971
 21
3090.000000596
 31
0.0
  0
LINE
  5
14B
330
1F
100
AcDbEntity
  8
0
  6
CONTINUOUS
 62
     7
100
AcDbLine
 10
1414.9000287056
 20
3098.5000029206
 30
0.0
 11
1421.7499732971
 21
3098.5000029206
 31
0.0
  0
LINE
  5
14C
330
1F
100
AcDbEntity
  8
0
  6
CONTINUOUS
 62
     7
100
AcDbLine
 10
1414.9000287056
 20
3090.000000596
 30
0.0
 11
1414.9000287056
 21
3098.5000029206
 31
0.0
  0
LINE
  5
14D
330
1F
100
AcDbEntity
  8
0
  6
CONTINUOUS
 62
     7
100
AcDbLine
 10
1414.9000287056
 20
3081.4999982715
 30
0.0
 11
1421.7499732971
 21
3081.4999982715
 31
0.0
  0
LINE
  5
14E
330
1F
100
AcDbEntity
  8
0
  6
CONTINUOUS
 62
     7
100
AcDbLine
 10
1414.9000287056
 20
3081.4999982715
 30
0.0
 11
1414.9000287056
 21
3090.000000596
 31
0.0
  0
LINE
  5
14F
330
1F
100
AcDbEntity
  8
0
  6
CONTINUOUS
 62
     7
100
AcDbLine
 10
385.0999712944
 20
3098.5000029206
 30
0.0
 11
378.2500267029
 21
3098.5000029206
 31
0.0
  0
LINE
  5
150
330
1F
100
AcDbEntity
  8
0
  6
CONTINUOUS
 62
     7
100
AcDbLine
 10
385.0999712944
 20
3098.5000029206
 30
0.0
 11
385.0999712944
 21
3090.000000596
 31
0.0
  0
LINE
  5
151
330
1F
100
AcDbEntity
  8
0
  6
CONTINUOUS
 62
     7
100
AcDbLine
 10
385.0999712944
 20
3090.000000596
 30
0.0
 11
378.2500267029
 21
3090.000000596
 31
0.0
  0
LINE
  5
152
330
1F
100
AcDbEntity
  8
0
  6
CONTINUOUS
 62
     7
100
AcDbLine
 10
385.0999712944
 20
3081.4999982715
 30
0.0
 11
378.2500267029
 21
3081.4999982715
 31
0.0
  0
LINE
  5
153
330
1F
100
AcDbEntity
  8
0
  6
CONTINUOUS
 62
     7
100
AcDbLine
 10
385.0999712944
 20
3090.000000596
 30
0.0
 11
385.0999712944
 21
3081.4999982715
 31
0.0
  0
LINE
  5
154
330
1F
100
AcDbEntity
  8
0
  6
CONTINUOUS
 62
     7
100
AcDbLine
 10
385.0999712944
 20
3318.5000017285
 30
0.0
 11
378.2500267029
 21
3318.5000017285
 31
0.0
  0
LINE
  5
155
330
1F
100
AcDbEntity
  8
0
  6
CONTINUOUS
 62
     7
100
AcDbLine
 10
385.0999712944
 20
3318.5000017285
 30
0.0
 11
385.0999712944
 21
3309.999999404
 31
0.0
  0
LINE
  5
156
330
1F
100
AcDbEntity
  8
0
  6
CONTINUOUS
 62
     7
100
AcDbLine
 10
385.0999712944
 20
3309.999999404
 30
0.0
 11
378.2500267029
 21
3309.999999404
 31
0.0
  0
LINE
  5
157
330
1F
100
AcDbEntity
  8
0
  6
CONTINUOUS
 62
     7
100
AcDbLine
 10
385.0999712944
 20
3309.999999404
 30
0.0
 11
385.0999712944
 21
3301.4999970794
 31
0.0
  0
LINE
  5
158
330
1F
100
AcDbEntity
  8
0
  6
CONTINUOUS
 62
     7
100
AcDbLine
 10
385.0999712944
 20
3301.4999970794
 30
0.0
 11
378.2500267029
 21
3301.4999970794
 31
0.0
  0
LINE
  5
159
330
1F
100
AcDbEntity
  8
0
  6
CONTINUOUS
 62
     7
100
AcDbLine
 10
1261.45
 20
2973.1
 30
0.0
 11
1285.45
 21
2973.1
 31
0.0
  0
LINE
  5
15A
330
1F
100
AcDbEntity
  8
0
  6
CONTINUOUS
 62
     7
100
AcDbLine
 10
1251.95
 20
2973.1
 30
0.0
 11
1261.45
 21
2973.1
 31
0.0
  0
LINE
  5
15B
330
1F
100
AcDbEntity
  8
0
  6
CONTINUOUS
 62
     7
100
AcDbLine
 10
1251.95
 20
2973.1
 30
0.0
 11
1251.9499897957
 21
2975.0000059605
 31
0.0
  0
LINE
  5
15C
330
1F
100
AcDbEntity
  8
0
  6
CONTINUOUS
 62
     7
100
AcDbLine
 10
1261.45
 20
2971.1
 30
0.0
 11
1253.95
 21
2971.1
 31
0.0
  0
LINE
  5
15D
330
1F
100
AcDbEntity
  8
0
  6
CONTINUOUS
 62
     7
100
AcDbLine
 10
1253.95
 20
2971.1
 30
0.0
 11
1251.95
 21
2973.1
 31
0.0
  0
LINE
  5
15E
330
1F
100
AcDbEntity
  8
0
  6
CONTINUOUS
 62
     7
100
AcDbLine
 10
1261.45
 20
2971.1
 30
0.0
 11
1261.45
 21
2973.1
 31
0.0
  0
LINE
  5
15F
330
1F
100
AcDbEntity
  8
0
  6
CONTINUOUS
 62
     7
100
AcDbLine
 10
1285.45
 20
2971.1
 30
0.0
 11
1261.45
 21
2971.1
 31
0.0
  0
LINE
  5
160
330
1F
100
AcDbEntity
  8
0
  6
CONTINUOUS
 62
     7
100
AcDbLine
 10
1285.45
 20
2971.1
 30
0.0
 11
1285.45
 21
2973.1
 31
0.0
  0
LINE
  5
161
330
1F
100
AcDbEntity
  8
0
  6
CONTINUOUS
 62
     7
100
AcDbLine
 10
1294.9500024319
 20
2975.0000059605
 30
0.0
 11
1294.95
 21
2973.1
 31
0.0
  0
LINE
  5
162
330
1F
100
AcDbEntity
  8
0
  6
CONTINUOUS
 62
     7
100
AcDbLine
 10
1285.45
 20
2973.1
 30
0.0
 11
1294.95
 21
2973.1
 31
0.0
  0
LINE
  5
163
330
1F
100
AcDbEntity
  8
0
  6
CONTINUOUS
 62
     7
100
AcDbLine
 10
1292.95
 20
2971.1
 30
0.0
 11
1285.45
 21
2971.1
 31
0.0
  0
LINE
  5
164
330
1F
100
AcDbEntity
  8
0
  6
CONTINUOUS
 62
     7
100
AcDbLine
 10
1294.95
 20
2973.1
 30
0.0
 11
1292.95
 21
2971.1
 31
0.0
  0
LINE
  5
165
330
1F
100
AcDbEntity
  8
0
  6
CONTINUOUS
 62
     7
100
AcDbLine
 10
546.05
 20
2971.1
 30
0.0
 11
538.55
 21
2971.1
 31
0.0
  0
LINE
  5
166
330
1F
100
AcDbEntity
  8
0
  6
CONTINUOUS
 62
     7
100
AcDbLine
 10
538.55
 20
2971.1
 30
0.0
 11
538.55
 21
2973.1
 31
0.0
  0
LINE
  5
167
330
1F
100
AcDbEntity
  8
0
  6
CONTINUOUS
 62
     7
100
AcDbLine
 10
538.55
 20
2973.1
 30
0.0
 11
548.05
 21
2973.1
 31
0.0
  0
LINE
  5
168
330
1F
100
AcDbEntity
  8
0
  6
CONTINUOUS
 62
     7
100
AcDbLine
 10
548.05
 20
2973.1
 30
0.0
 11
546.05
 21
2971.1
 31
0.0
  0
LINE
  5
169
330
1F
100
AcDbEntity
  8
0
  6
CONTINUOUS
 62
     7
100
AcDbLine
 10
548.0500102043
 20
2975.0000059605
 30
0.0
 11
548.05
 21
2973.1
 31
0.0
  0
LINE
  5
16A
330
1F
100
AcDbEntity
  8
0
  6
CONTINUOUS
 62
     7
100
AcDbLine
 10
514.55
 20
2973.1
 30
0.0
 11
538.55
 21
2973.1
 31
0.0
  0
LINE
  5
16B
330
1F
100
AcDbEntity
  8
0
  6
CONTINUOUS
 62
     7
100
AcDbLine
 10
538.55
 20
2971.1
 30
0.0
 11
514.55
 21
2971.1
 31
0.0
  0
LINE
  5
16C
330
1F
100
AcDbEntity
  8
0
  6
CONTINUOUS
 62
     7
100
AcDbLine
 10
514.55
 20
2971.1
 30
0.0
 11
514.55
 21
2973.1
 31
0.0
  0
LINE
  5
16D
330
1F
100
AcDbEntity
  8
0
  6
CONTINUOUS
 62
     7
100
AcDbLine
 10
514.55
 20
2971.1
 30
0.0
 11
507.05
 21
2971.1
 31
0.0
  0
LINE
  5
16E
330
1F
100
AcDbEntity
  8
0
  6
CONTINUOUS
 62
     7
100
AcDbLine
 10
507.05
 20
2971.1
 30
0.0
 11
505.05
 21
2973.1
 31
0.0
  0
LINE
  5
16F
330
1F
100
AcDbEntity
  8
0
  6
CONTINUOUS
 62
     7
100
AcDbLine
 10
505.05
 20
2973.1
 30
0.0
 11
514.55
 21
2973.1
 31
0.0
  0
LINE
  5
170
330
1F
100
AcDbEntity
  8
0
  6
CONTINUOUS
 62
     7
100
AcDbLine
 10
505.05
 20
2973.1
 30
0.0
 11
505.0499975681
 21
2975.0000059605
 31
0.0
  0
LINE
  5
171
330
1F
100
AcDbEntity
  8
0
  6
CONTINUOUS
 62
     7
100
AcDbLine
 10
1437.359058857
 20
3146.2208114564
 30
0.0
 11
1437.4769568443
 21
3146.2208114564
 31
0.0
  0
LINE
  5
172
330
1F
100
AcDbEntity
  8
0
  6
CONTINUOUS
 62
     7
100
AcDbLine
 10
1437.359058857
 20
3241.2208102643
 30
0.0
 11
1437.4769568443
 21
3241.2208102643
 31
0.0
  0
LINE
  5
173
330
1F
100
AcDbEntity
  8
0
  6
CONTINUOUS
 62
     7
100
AcDbLine
 10
1285.45
 20
2973.1
 30
0.0
 11
1285.4500055313
 21
2975.0000059605
 31
0.0
  0
LINE
  5
174
330
1F
100
AcDbEntity
  8
0
  6
CONTINUOUS
 62
     7
100
AcDbLine
 10
1261.4499866962
 20
2975.0000059605
 30
0.0
 11
1261.45
 21
2973.1
 31
0.0
  0
LINE
  5
175
330
1F
100
AcDbEntity
  8
0
  6
CONTINUOUS
 62
     7
100
AcDbLine
 10
538.55
 20
2973.1
 30
0.0
 11
538.5500133038
 21
2975.0000059605
 31
0.0
  0
LINE
  5
176
330
1F
100
AcDbEntity
  8
0
  6
CONTINUOUS
 62
     7
100
AcDbLine
 10
514.5499944687
 20
2975.0000059605
 30
0.0
 11
514.55
 21
2973.1
 31
0.0
  0
ARC
  5
177
330
1F
100
AcDbEntity
  8
0
  6
CONTINUOUS
 62
     7
100
AcDbCircle
 10
1428.95
 20
2619.9582089552
 30
0.0
 40
8.700000000000252
100
AcDbArc
 50
8.7543499941
 51
26.2915552747
  0
ARC
  5
178
330
1F
100
AcDbEntity
  8
0
  6
CONTINUOUS
 62
     7
100
AcDbCircle
 10
1428.95
 20
2619.9582089552
 30
0.0
 40
8.700000000000051
100
AcDbArc
 50
333.7084447253
 51
351.2248534664
  0
LINE
  5
179
330
1F
100
AcDbEntity
  8
0
  6
CONTINUOUS
 62
     7
100
AcDbLine
 10
1437.4195575714
 20
2620.3892887005
 30
0.0
 11
1437.5002622604
 21
2620.3892887005
 31
0.0
  0
LINE
  5
17A
330
1F
100
AcDbEntity
  8
0
  6
CONTINUOUS
 62
     7
100
AcDbLine
 10
1437.4999046326
 20
2619.527122415
 30
0.0
 11
1437.4166965485
 21
2619.527122415
 31
0.0
  0
LINE
  5
17B
330
1F
100
AcDbEntity
  8
0
  6
CONTINUOUS
 62
     7
100
AcDbLine
 10
1437.4498963356
 20
2621.2829858431
 30
0.0
 11
1437.5486446359
 21
2621.2823352428
 31
0.0
  0
LINE
  5
17C
330
1F
100
AcDbEntity
  8
0
  6
CONTINUOUS
 62
     7
100
AcDbLine
 10
1437.5478863716
 20
2618.6334252724
 30
0.0
 11
1437.4503731728
 21
2618.6334252724
 31
0.0
  0
ARC
  5
17D
330
1F
100
AcDbEntity
  8
0
  6
CONTINUOUS
 62
     7
100
AcDbCircle
 10
1428.95
 20
2561.9582089552
 30
0.0
 40
8.699999999999857
100
AcDbArc
 50
8.7543499941
 51
26.2915552747
  0
ARC
  5
17E
330
1F
100
AcDbEntity
  8
0
  6
CONTINUOUS
 62
     7
100
AcDbCircle
 10
1428.95
 20
2561.9582089552
 30
0.0
 40
8.70000000000026
100
AcDbArc
 50
333.7084447253
 51
351.2248534664
  0
LINE
  5
17F
330
1F
100
AcDbEntity
  8
0
  6
CONTINUOUS
 62
     7
100
AcDbLine
 10
1437.4195575714
 20
2562.3892903694
 30
0.0
 11
1437.5002622604
 21
2562.3892903694
 31
0.0
  0
LINE
  5
180
330
1F
100
AcDbEntity
  8
0
  6
CONTINUOUS
 62
     7
100
AcDbLine
 10
1437.4999046326
 20
2561.5271240839
 30
0.0
 11
1437.4166965485
 21
2561.5271240839
 31
0.0
  0
LINE
  5
181
330
1F
100
AcDbEntity
  8
0
  6
CONTINUOUS
 62
     7
100
AcDbLine
 10
1437.4498963356
 20
2563.282987512
 30
0.0
 11
1437.5478863716
 21
2563.282987512
 31
0.0
  0
LINE
  5
182
330
1F
100
AcDbEntity
  8
0
  6
CONTINUOUS
 62
     7
100
AcDbLine
 10
1437.5478863716
 20
2560.6334269413
 30
0.0
 11
1437.4503731728
 21
2560.6334269413
 31
0.0
  0
ARC
  5
183
330
1F
100
AcDbEntity
  8
0
  6
CONTINUOUS
 62
     7
100
AcDbCircle
 10
1317.0
 20
2704.4082089552
 30
0.0
 40
8.699999999999966
100
AcDbArc
 50
104.4229219208
 51
116.2915552747
  0
ARC
  5
184
330
1F
100
AcDbEntity
  8
0
  6
CONTINUOUS
 62
     7
100
AcDbCircle
 10
1317.0
 20
2704.4082089552
 30
0.0
 40
8.70000000000041
100
AcDbArc
 50
63.7084447253
 51
75.5405417594
  0
LINE
  5
185
330
1F
100
AcDbEntity
  8
0
  6
CONTINUOUS
 62
     7
100
AcDbLine
 10
1316.0441458225
 20
2712.8163785109
 30
0.0
 11
1316.0441458225
 21
2712.9862815508
 31
0.0
  0
LINE
  5
186
330
1F
100
AcDbEntity
  8
0
  6
CONTINUOUS
 62
     7
100
AcDbLine
 10
1318.1884527206
 20
2712.9983514914
 30
0.0
 11
1318.1884527206
 21
2712.8216237196
 31
0.0
  0
LINE
  5
187
330
1F
100
AcDbEntity
  8
0
  6
CONTINUOUS
 62
     7
100
AcDbLine
 10
1317.9558455944
 20
2712.9862815508
 30
0.0
 11
1317.9558455944
 21
2712.8538698325
 31
0.0
  0
ARC
  5
188
330
1F
100
AcDbEntity
  8
0
  6
CONTINUOUS
 62
     7
100
AcDbCircle
 10
1259.0
 20
2704.4082089552
 30
0.0
 40
8.700000000000021
100
AcDbArc
 50
104.4229219208
 51
116.2915552747
  0
ARC
  5
189
330
1F
100
AcDbEntity
  8
0
  6
CONTINUOUS
 62
     7
100
AcDbCircle
 10
1259.0
 20
2704.4082089552
 30
0.0
 40
8.700000000000353
100
AcDbArc
 50
63.7084447253
 51
75.5405417594
  0
LINE
  5
18A
330
1F
100
AcDbEntity
  8
0
  6
CONTINUOUS
 62
     7
100
AcDbLine
 10
1258.0441474915
 20
2712.8163785109
 30
0.0
 11
1258.0441474915
 21
2712.9862815508
 31
0.0
  0
LINE
  5
18B
330
1F
100
AcDbEntity
  8
0
  6
CONTINUOUS
 62
     7
100
AcDbLine
 10
1260.1884543896
 20
2712.9983514914
 30
0.0
 11
1260.1884543896
 21
2712.8216237196
 31
0.0
  0
LINE
  5
18C
330
1F
100
AcDbEntity
  8
0
  6
CONTINUOUS
 62
     7
100
AcDbLine
 10
1259.9558472633
 20
2712.9862815508
 30
0.0
 11
1259.9558472633
 21
2712.8538698325
 31
0.0
  0
CIRCLE
  5
18D
330
1F
100
AcDbEntity
  8
0
  6
CONTINUOUS
 62
     7
100
AcDbCircle
 10
950.0
 20
2400.4582089552
 30
0.0
 40
61.5
  0
LINE
  5
18E
330
1F
100
AcDbEntity
  8
0
  6
CONTINUOUS
 62
     7
100
AcDbLine
 10
501.55
 20
2237.4582089552
 30
0.0
 11
501.55
 21
2623.4582089552
 31
0.0
  0
ARC
  5
18F
330
1F
100
AcDbEntity
  8
0
  6
CONTINUOUS
 62
     7
100
AcDbCircle
 10
514.55
 20
2237.4582089552
 30
0.0
 40
13.00000000000046
100
AcDbArc
 50
180.0
 51
270.0
  0
LINE
  5
190
330
1F
100
AcDbEntity
  8
0
  6
CONTINUOUS
 62
     7
100
AcDbLine
 10
538.55
 20
2224.4582089552
 30
0.0
 11
514.55
 21
2224.4582089552
 31
0.0
  0
ARC
  5
191
330
1F
100
AcDbEntity
  8
0
  6
CONTINUOUS
 62
     7
100
AcDbCircle
 10
538.55
 20
2237.4582089552
 30
0.0
 40
13.00000000000046
100
AcDbArc
 50
270.0
 51
0.0
  0
LINE
  5
192
330
1F
100
AcDbEntity
  8
0
  6
CONTINUOUS
 62
     7
100
AcDbLine
 10
551.55
 20
2623.4582089552
 30
0.0
 11
551.55
 21
2237.4582089552
 31
0.0
  0
ARC
  5
193
330
1F
100
AcDbEntity
  8
0
  6
CONTINUOUS
 62
     7
100
AcDbCircle
 10
538.55
 20
2623.4582089552
 30
0.0
 40
13.00000000000046
100
AcDbArc
 50
0.0
 51
90.0
  0
LINE
  5
194
330
1F
100
AcDbEntity
  8
0
  6
CONTINUOUS
 62
     7
100
AcDbLine
 10
514.55
 20
2636.4582089552
 30
0.0
 11
538.55
 21
2636.4582089552
 31
0.0
  0
ARC
  5
195
330
1F
100
AcDbEntity
  8
0
  6
CONTINUOUS
 62
     7
100
AcDbCircle
 10
514.55
 20
2623.4582089552
 30
0.0
 40
13.00000000000046
100
AcDbArc
 50
90.0
 51
180.0
  0
ARC
  5
196
330
1F
100
AcDbEntity
  8
0
  6
CONTINUOUS
 62
     7
100
AcDbCircle
 10
1261.45
 20
2623.4582089552
 30
0.0
 40
13.00000000000046
100
AcDbArc
 50
90.0
 51
180.0
  0
LINE
  5
197
330
1F
100
AcDbEntity
  8
0
  6
CONTINUOUS
 62
     7
100
AcDbLine
 10
1248.45
 20
2623.4582089552
 30
0.0
 11
1248.45
 21
2237.4582089552
 31
0.0
  0
ARC
  5
198
330
1F
100
AcDbEntity
  8
0
  6
CONTINUOUS
 62
     7
100
AcDbCircle
 10
1261.45
 20
2237.4582089552
 30
0.0
 40
13.00000000000046
100
AcDbArc
 50
180.0
 51
270.0
  0
LINE
  5
199
330
1F
100
AcDbEntity
  8
0
  6
CONTINUOUS
 62
     7
100
AcDbLine
 10
1261.45
 20
2224.4582089552
 30
0.0
 11
1285.45
 21
2224.4582089552
 31
0.0
  0
ARC
  5
19A
330
1F
100
AcDbEntity
  8
0
  6
CONTINUOUS
 62
     7
100
AcDbCircle
 10
1285.45
 20
2237.4582089552
 30
0.0
 40
13.00000000000046
100
AcDbArc
 50
270.0
 51
0.0
  0
LINE
  5
19B
330
1F
100
AcDbEntity
  8
0
  6
CONTINUOUS
 62
     7
100
AcDbLine
 10
1298.45
 20
2237.4582089552
 30
0.0
 11
1298.45
 21
2623.4582089552
 31
0.0
  0
ARC
  5
19C
330
1F
100
AcDbEntity
  8
0
  6
CONTINUOUS
 62
     7
100
AcDbCircle
 10
1285.45
 20
2623.4582089552
 30
0.0
 40
13.00000000000046
100
AcDbArc
 50
0.0
 51
90.0
  0
LINE
  5
19D
330
1F
100
AcDbEntity
  8
0
  6
CONTINUOUS
 62
     7
100
AcDbLine
 10
1285.45
 20
2636.4582089552
 30
0.0
 11
1261.45
 21
2636.4582089552
 31
0.0
  0
LINE
  5
19E
330
1F
100
AcDbEntity
  8
0
  6
CONTINUOUS
 62
     7
100
AcDbLine
 10
372.75
 20
2702.7082089552
 30
0.0
 11
372.75
 21
2158.2082089552
 31
0.0
  0
LINE
  5
19F
330
1F
100
AcDbEntity
  8
0
  6
CONTINUOUS
 62
     7
100
AcDbLine
 10
1427.25
 20
2702.7082089552
 30
0.0
 11
372.75
 21
2702.7082089552
 31
0.0
  0
LINE
  5
1A0
330
1F
100
AcDbEntity
  8
0
  6
CONTINUOUS
 62
     7
100
AcDbLine
 10
1427.25
 20
2158.2082089552
 30
0.0
 11
1427.25
 21
2702.7082089552
 31
0.0
  0
LINE
  5
1A1
330
1F
100
AcDbEntity
  8
0
  6
CONTINUOUS
 62
     7
100
AcDbLine
 10
372.75
 20
2158.2082089552
 30
0.0
 11
1427.25
 21
2158.2082089552
 31
0.0
  0
CIRCLE
  5
1A2
330
1F
100
AcDbEntity
  8
0
  6
CONTINUOUS
 62
     7
100
AcDbCircle
 10
570.0
 20
2178.20746238
 30
0.0
 40
8.099999999999909
  0
CIRCLE
  5
1A3
330
1F
100
AcDbEntity
  8
0
  6
CONTINUOUS
 62
     7
100
AcDbCircle
 10
900.0
 20
2178.20746238
 30
0.0
 40
8.099999999999909
  0
CIRCLE
  5
1A4
330
1F
100
AcDbEntity
  8
0
  6
CONTINUOUS
 62
     7
100
AcDbCircle
 10
1230.0
 20
2178.20746238
 30
0.0
 40
8.099999999999909
  0
LINE
  5
1A5
330
1F
100
AcDbEntity
  8
0
  6
CONTINUOUS
 62
     7
100
AcDbLine
 10
372.75
 20
2712.2082089552
 30
0.0
 11
372.75
 21
2702.7082089552
 31
0.0
  0
LINE
  5
1A6
330
1F
100
AcDbEntity
  8
0
  6
CONTINUOUS
 62
     7
100
AcDbLine
 10
363.25
 20
2702.7082089552
 30
0.0
 11
372.75
 21
2702.7082089552
 31
0.0
  0
ARC
  5
1A7
330
1F
100
AcDbEntity
  8
0
  6
CONTINUOUS
 62
     7
100
AcDbCircle
 10
372.75
 20
2702.7082089552
 30
0.0
 40
9.5
100
AcDbArc
 50
90.0
 51
180.0
  0
LINE
  5
1A8
330
1F
100
AcDbEntity
  8
0
  6
CONTINUOUS
 62
     7
100
AcDbLine
 10
1427.25
 20
2712.2082089552
 30
0.0
 11
1427.25
 21
2702.7082089552
 31
0.0
  0
ARC
  5
1A9
330
1F
100
AcDbEntity
  8
0
  6
CONTINUOUS
 62
     7
100
AcDbCircle
 10
1427.25
 20
2702.7082089552
 30
0.0
 40
9.5
100
AcDbArc
 50
0.0
 51
90.0
  0
LINE
  5
1AA
330
1F
100
AcDbEntity
  8
0
  6
CONTINUOUS
 62
     7
100
AcDbLine
 10
1427.25
 20
2702.7082089552
 30
0.0
 11
1436.75
 21
2702.7082089552
 31
0.0
  0
LINE
  5
1AB
330
1F
100
AcDbEntity
  8
0
  6
CONTINUOUS
 62
     7
100
AcDbLine
 10
372.75
 20
2712.2082089552
 30
0.0
 11
1427.25
 21
2712.2082089552
 31
0.0
  0
LINE
  5
1AC
330
1F
100
AcDbEntity
  8
0
  6
CONTINUOUS
 62
     7
100
AcDbLine
 10
363.25
 20
2158.2082089552
 30
0.0
 11
363.25
 21
2702.7082089552
 31
0.0
  0
LINE
  5
1AD
330
1F
100
AcDbEntity
  8
0
  6
CONTINUOUS
 62
     7
100
AcDbLine
 10
363.25
 20
2158.2082089552
 30
0.0
 11
372.75
 21
2158.2082089552
 31
0.0
  0
LINE
  5
1AE
330
1F
100
AcDbEntity
  8
0
  6
CONTINUOUS
 62
     7
100
AcDbLine
 10
1436.75
 20
2702.7082089552
 30
0.0
 11
1436.75
 21
2158.2082089552
 31
0.0
  0
LINE
  5
1AF
330
1F
100
AcDbEntity
  8
0
  6
CONTINUOUS
 62
     7
100
AcDbLine
 10
1427.25
 20
2158.2082089552
 30
0.0
 11
1436.75
 21
2158.2082089552
 31
0.0
  0
LINE
  5
1B0
330
1F
100
AcDbEntity
  8
0
  6
CONTINUOUS
 62
     7
100
AcDbLine
 10
1427.25
 20
2158.2082089552
 30
0.0
 11
1427.25
 21
2148.7082089552
 31
0.0
  0
LINE
  5
1B1
330
1F
100
AcDbEntity
  8
0
  6
CONTINUOUS
 62
     7
100
AcDbLine
 10
1427.25
 20
2148.7082089552
 30
0.0
 11
372.75
 21
2148.7082089552
 31
0.0
  0
LINE
  5
1B2
330
1F
100
AcDbEntity
  8
0
  6
CONTINUOUS
 62
     7
100
AcDbLine
 10
372.75
 20
2158.2082089552
 30
0.0
 11
372.75
 21
2148.7082089552
 31
0.0
  0
ARC
  5
1B3
330
1F
100
AcDbEntity
  8
0
  6
CONTINUOUS
 62
     7
100
AcDbCircle
 10
1427.25
 20
2158.2082089552
 30
0.0
 40
9.5
100
AcDbArc
 50
270.0
 51
0.0
  0
ARC
  5
1B4
330
1F
100
AcDbEntity
  8
0
  6
CONTINUOUS
 62
     7
100
AcDbCircle
 10
372.75
 20
2158.2082089552
 30
0.0
 40
9.500000000000057
100
AcDbArc
 50
180.0
 51
270.0
  0
CIRCLE
  5
1B5
330
1F
100
AcDbEntity
  8
0
  6
CONTINUOUS
 62
     7
100
AcDbCircle
 10
1230.0
 20
2178.20746238
 30
0.0
 40
3.000000000000455
  0
CIRCLE
  5
1B6
330
1F
100
AcDbEntity
  8
0
  6
CONTINUOUS
 62
     7
100
AcDbCircle
 10
900.0
 20
2178.20746238
 30
0.0
 40
3.000000000000455
  0
CIRCLE
  5
1B7
330
1F
100
AcDbEntity
  8
0
  6
CONTINUOUS
 62
     7
100
AcDbCircle
 10
570.0
 20
2178.20746238
 30
0.0
 40
3.000000000000455
  0
CIRCLE
  5
1B8
330
1F
100
AcDbEntity
  8
0
  6
CONTINUOUS
 62
     7
100
AcDbCircle
 10
526.55
 20
2430.4582089552
 30
0.0
 40
1.5
  0
CIRCLE
  5
1B9
330
1F
100
AcDbEntity
  8
0
  6
CONTINUOUS
 62
     7
100
AcDbCircle
 10
526.55
 20
2250.4582089552
 30
0.0
 40
1.5
  0
CIRCLE
  5
1BA
330
1F
100
AcDbEntity
  8
0
  6
CONTINUOUS
 62
     7
100
AcDbCircle
 10
526.55
 20
2610.4582089552
 30
0.0
 40
1.499999999999545
  0
CIRCLE
  5
1BB
330
1F
100
AcDbEntity
  8
0
  6
CONTINUOUS
 62
     7
100
AcDbCircle
 10
1273.45
 20
2250.4582089552
 30
0.0
 40
1.5
  0
CIRCLE
  5
1BC
330
1F
100
AcDbEntity
  8
0
  6
CONTINUOUS
 62
     7
100
AcDbCircle
 10
1273.45
 20
2610.4582089552
 30
0.0
 40
1.499999999999545
  0
CIRCLE
  5
1BD
330
1F
100
AcDbEntity
  8
0
  6
CONTINUOUS
 62
     7
100
AcDbCircle
 10
1273.45
 20
2430.4582089552
 30
0.0
 40
1.5
  0
CIRCLE
  5
1BE
330
1F
100
AcDbEntity
  8
0
  6
CONTINUOUS
 62
     7
100
AcDbCircle
 10
950.0
 20
2400.4582089552
 30
0.0
 40
18.00000000000006
  0
CIRCLE
  5
1BF
330
1F
100
AcDbEntity
  8
0
  6
CONTINUOUS
 62
     7
100
AcDbCircle
 10
950.0
 20
2400.4582089552
 30
0.0
 40
58.49999999999991
  0
CIRCLE
  5
1C0
330
1F
100
AcDbEntity
  8
0
  6
CONTINUOUS
 62
     7
100
AcDbCircle
 10
920.6479975129
 20
2429.8102114423
 30
0.0
 40
5.200000000000171
  0
CIRCLE
  5
1C1
330
1F
100
AcDbEntity
  8
0
  6
CONTINUOUS
 62
     7
100
AcDbCircle
 10
979.3520024871
 20
2429.8102114423
 30
0.0
 40
5.200000000000251
  0
CIRCLE
  5
1C2
330
1F
100
AcDbEntity
  8
0
  6
CONTINUOUS
 62
     7
100
AcDbCircle
 10
979.3520024871
 20
2371.1062064682
 30
0.0
 40
5.20000000000001
  0
CIRCLE
  5
1C3
330
1F
100
AcDbEntity
  8
0
  6
CONTINUOUS
 62
     7
100
AcDbCircle
 10
920.6479975129
 20
2371.1062064682
 30
0.0
 40
5.199999999999929
  0
LWPOLYLINE
  5
1C4
330
1F
100
AcDbEntity
  8
0
  6
CONTINUOUS
 62
     7
100
AcDbPolyline
 90
       12
 70
   128
 43
0.0
 10
1437.4769568443
 20
2621.6258615622
 10
1437.4439954758
 20
2621.7690766224
 10
1437.411570549
 20
2621.8822509417
 10
1437.3837351799
 20
2621.9512731203
 10
1437.3640656471
 20
2621.9676942
 10
1437.3547077179
 20
2621.9313800701
 10
1437.3562574387
 20
2621.8487978348
 10
1437.368118763
 20
2621.7299759754
 10
1437.3890399933
 20
2621.5867758164
 10
1437.4170541763
 20
2621.4330703387
 10
1437.4493598938
 20
2621.2852061161
 10
1437.4769568443
 20
2621.1790204415
  0
LWPOLYLINE
  5
1C5
330
1F
100
AcDbEntity
  8
0
  6
CONTINUOUS
 62
     7
100
AcDbPolyline
 90
        9
 70
   128
 43
0.0
 10
1437.4769568443
 20
2621.1790204415
 10
1437.5066995621
 20
2621.0513025889
 10
1437.5302433968
 20
2620.8993554482
 10
1437.5446081162
 20
2620.7431316742
 10
1437.5484228134
 20
2620.6015110382
 10
1437.5417470932
 20
2620.4888582596
 10
1437.5254154205
 20
2620.4156339535
 10
1437.5009775162
 20
2620.3893036017
 10
1437.4769568443
 20
2620.4050541291
  0
LWPOLYLINE
  5
1C6
330
1F
100
AcDbEntity
  8
0
  6
CONTINUOUS
 62
     7
100
AcDbPolyline
 90
       12
 70
   128
 43
0.0
 10
1437.4517440796
 20
2620.4158723721
 10
1437.4438762665
 20
2620.4192549357
 10
1437.4114513397
 20
2620.3792900214
 10
1437.3836755753
 20
2620.2894360194
 10
1437.3640060425
 20
2620.1615840563
 10
1437.3547077179
 20
2620.0125575432
 10
1437.3562574387
 20
2619.8598653445
 10
1437.3681783676
 20
2619.7190493712
 10
1437.3890995979
 20
2619.6036845812
 10
1437.4171733856
 20
2619.5258707175
 10
1437.4494791031
 20
2619.4957405695
 10
1437.4518036842
 20
2619.4970667729
  0
LINE
  5
1C7
330
1F
100
AcDbEntity
  8
0
  6
CONTINUOUS
 62
     7
100
AcDbLine
 10
1437.4769568443
 20
2619.5113569865
 30
0.0
 11
1437.4999046326
 21
2619.5224285492
 31
0.0
  0
ARC
  5
1C8
330
1F
100
AcDbEntity
  8
0
  6
CONTINUOUS
 62
     7
100
AcDbCircle
 10
1436.1024614898
 20
2619.1839771941
 30
0.0
 40
1.44522098326098
100
AcDbArc
 50
342.0010932162
 51
13.6774007977
  0
LWPOLYLINE
  5
1C9
330
1F
100
AcDbEntity
  8
0
  6
CONTINUOUS
 62
     7
100
AcDbPolyline
 90
       12
 70
   128
 43
0.0
 10
1437.4769568443
 20
2618.7374055752
 10
1437.4438762665
 20
2618.6079889902
 10
1437.4115109444
 20
2618.4549987683
 10
1437.3836755753
 20
2618.2963014015
 10
1437.3640060425
 20
2618.1521922716
 10
1437.3547077179
 20
2618.0396438011
 10
1437.3562574387
 20
2617.969653047
 10
1437.3681783676
 20
2617.9477632412
 10
1437.3890995979
 20
2617.9756284127
 10
1437.417113781
 20
2618.0515051255
 10
1437.4494194984
 20
2618.1691646942
 10
1437.4769568443
 20
2618.2905495533
  0
ARC
  5
1CA
330
1F
100
AcDbEntity
  8
0
  6
CONTINUOUS
 62
     7
100
AcDbCircle
 10
1268.4951969608
 20
2653.735292954
 30
0.0
 40
172.6591005655031
100
AcDbArc
 50
348.1536744306
 51
348.2687857205
  0
LWPOLYLINE
  5
1CB
330
1F
100
AcDbEntity
  8
0
  6
CONTINUOUS
 62
     7
100
AcDbPolyline
 90
        6
 70
   128
 43
0.0
 10
1437.5478863716
 20
2621.2861448893
 10
1437.5484228134
 20
2621.2835371861
 10
1437.5417470932
 20
2621.3157982001
 10
1437.5254154205
 20
2621.3942379126
 10
1437.5009179115
 20
2621.5113610396
 10
1437.4769568443
 20
2621.6258615622
  0
LWPOLYLINE
  5
1CC
330
1F
100
AcDbEntity
  8
0
  6
CONTINUOUS
 62
     7
100
AcDbPolyline
 90
       12
 70
   128
 43
0.0
 10
1437.4769568443
 20
2563.6258632311
 10
1437.4439954758
 20
2563.7690782914
 10
1437.411570549
 20
2563.8822377095
 10
1437.3837351799
 20
2563.9512747893
 10
1437.3640656471
 20
2563.9676958689
 10
1437.3547077179
 20
2563.9313817391
 10
1437.3562574387
 20
2563.8487995037
 10
1437.368118763
 20
2563.7299776444
 10
1437.3890399933
 20
2563.5867774853
 10
1437.4170541763
 20
2563.4330720076
 10
1437.4493598938
 20
2563.2852077851
 10
1437.4769568443
 20
2563.1790221104
  0
LWPOLYLINE
  5
1CD
330
1F
100
AcDbEntity
  8
0
  6
CONTINUOUS
 62
     7
100
AcDbPolyline
 90
        9
 70
   128
 43
0.0
 10
1437.4769568443
 20
2563.1790221104
 10
1437.5066995621
 20
2563.0513042578
 10
1437.5302433968
 20
2562.8993571171
 10
1437.5446081162
 20
2562.7431333432
 10
1437.5484228134
 20
2562.6015127072
 10
1437.5417470932
 20
2562.4888599285
 10
1437.5254154205
 20
2562.4156356224
 10
1437.5009775162
 20
2562.3893052706
 10
1437.4769568443
 20
2562.405055798
  0
LWPOLYLINE
  5
1CE
330
1F
100
AcDbEntity
  8
0
  6
CONTINUOUS
 62
     7
100
AcDbPolyline
 90
       12
 70
   128
 43
0.0
 10
1437.4517440796
 20
2562.415874041
 10
1437.4438762665
 20
2562.4192566046
 10
1437.4114513397
 20
2562.3792916903
 10
1437.3836755753
 20
2562.2894376883
 10
1437.3640060425
 20
2562.1615857252
 10
1437.3547077179
 20
2562.0125592121
 10
1437.3562574387
 20
2561.8598670134
 10
1437.3681783676
 20
2561.7190510401
 10
1437.3890995979
 20
2561.6036862501
 10
1437.4171733856
 20
2561.5258723864
 10
1437.4494791031
 20
2561.4957422385
 10
1437.4518036842
 20
2561.4970684418
  0
LINE
  5
1CF
330
1F
100
AcDbEntity
  8
0
  6
CONTINUOUS
 62
     7
100
AcDbLine
 10
1437.4769568443
 20
2561.5113586554
 30
0.0
 11
1437.4999046326
 21
2561.5224302182
 31
0.0
  0
ARC
  5
1D0
330
1F
100
AcDbEntity
  8
0
  6
CONTINUOUS
 62
     7
100
AcDbCircle
 10
1436.1023326836
 20
2561.1839752813
 30
0.0
 40
1.44534698399479
100
AcDbArc
 50
342.0022442257
 51
13.6763313981
  0
LWPOLYLINE
  5
1D1
330
1F
100
AcDbEntity
  8
0
  6
CONTINUOUS
 62
     7
100
AcDbPolyline
 90
       12
 70
   128
 43
0.0
 10
1437.4769568443
 20
2560.737392343
 10
1437.4438762665
 20
2560.6079906592
 10
1437.4115109444
 20
2560.4550004372
 10
1437.3836755753
 20
2560.2962881693
 10
1437.3640060425
 20
2560.1521939406
 10
1437.3547077179
 20
2560.0396454701
 10
1437.3562574387
 20
2559.9696547159
 10
1437.3681783676
 20
2559.9477649102
 10
1437.3890995979
 20
2559.9756300816
 10
1437.417113781
 20
2560.0515067944
 10
1437.4494194984
 20
2560.1691663632
 10
1437.4769568443
 20
2560.2905512223
  0
ARC
  5
1D2
330
1F
100
AcDbEntity
  8
0
  6
CONTINUOUS
 62
     7
100
AcDbCircle
 10
1284.6248642727
 20
2592.3689308466
 30
0.0
 40
156.1818960149964
100
AcDbArc
 50
348.1476023024
 51
348.2748578488
  0
LWPOLYLINE
  5
1D3
330
1F
100
AcDbEntity
  8
0
  6
CONTINUOUS
 62
     7
100
AcDbPolyline
 90
        6
 70
   128
 43
0.0
 10
1437.5478863716
 20
2563.2861465582
 10
1437.5484228134
 20
2563.283538855
 10
1437.5417470932
 20
2563.315799869
 10
1437.5254154205
 20
2563.3942395815
 10
1437.5009179115
 20
2563.5113627085
 10
1437.4769568443
 20
2563.6258632311
  0
ARC
  5
1D4
330
1F
100
AcDbEntity
  8
0
  6
CONTINUOUS
 62
     7
100
AcDbCircle
 10
1316.9605741238
 20
2704.3877645539
 30
0.0
 40
8.709440485119201
100
AcDbArc
 50
101.0693427886
 51
104.4344168339
  0
LWPOLYLINE
  5
1D5
330
1F
100
AcDbEntity
  8
0
  6
CONTINUOUS
 62
     7
100
AcDbPolyline
 90
        8
 70
   128
 43
0.0
 10
1314.7660434246
 20
2712.813249267
 10
1314.7652387619
 20
2712.8129214415
 10
1314.792239666
 20
2712.8144413599
 10
1314.8659706116
 20
2712.8263324866
 10
1314.9788320065
 20
2712.8472537169
 10
1315.1203036308
 20
2712.8752678999
 10
1315.2761995792
 20
2712.9075438151
 10
1315.4046773911
 20
2712.9351705679
  0
LWPOLYLINE
  5
1D6
330
1F
100
AcDbEntity
  8
0
  6
CONTINUOUS
 62
     7
100
AcDbPolyline
 90
        9
 70
   128
 43
0.0
 10
1315.4046773911
 20
2712.9351705679
 10
1315.5572354794
 20
2712.9649132857
 10
1315.7139658928
 20
2712.9884869227
 10
1315.8542454243
 20
2713.0028516421
 10
1315.9618318081
 20
2713.006636537
 10
1316.0267114639
 20
2712.9999310145
 10
1316.0434603691
 20
2712.9835993418
 10
1316.010171175
 20
2712.9591614374
 10
1315.9484505653
 20
2712.9351705679
  0
LWPOLYLINE
  5
1D7
330
1F
100
AcDbEntity
  8
0
  6
CONTINUOUS
 62
     7
100
AcDbPolyline
 90
       12
 70
   128
 43
0.0
 10
1315.9484505653
 20
2712.9351705679
 10
1315.8748984337
 20
2712.9020601878
 10
1315.8529937267
 20
2712.8696650633
 10
1315.8856570721
 20
2712.8418892989
 10
1315.9683287144
 20
2712.8222495684
 10
1316.0891473293
 20
2712.8129214415
 10
1316.2330329418
 20
2712.8144711623
 10
1316.3845777512
 20
2712.8263920912
 10
1316.5289998055
 20
2712.8473431238
 10
1316.6516363621
 20
2712.8753573069
 10
1316.7382121086
 20
2712.9076630244
 10
1316.7739748955
 20
2712.9351705679
  0
ARC
  5
1D8
330
1F
100
AcDbEntity
  8
0
  6
CONTINUOUS
 62
     7
100
AcDbCircle
 10
1317.2170162201
 20
2711.7510634453
 30
0.0
 40
1.264276588873041
100
AcDbArc
 50
69.486339355
 51
110.513660645
  0
LWPOLYLINE
  5
1D9
330
1F
100
AcDbEntity
  8
0
  6
CONTINUOUS
 62
     7
100
AcDbPolyline
 90
       12
 70
   128
 43
0.0
 10
1317.6600575447
 20
2712.9351705679
 10
1317.7446961403
 20
2712.9020899901
 10
1317.8698658943
 20
2712.8696948656
 10
1318.0210828781
 20
2712.8418892989
 10
1318.1788861752
 20
2712.8222495684
 10
1318.3238446712
 20
2712.8129214415
 10
1318.440580368
 20
2712.8144711623
 10
1318.5182452202
 20
2712.8263622889
 10
1318.5497164726
 20
2712.8473133215
 10
1318.5308218002
 20
2712.8753573069
 10
1318.461471796
 20
2712.907633222
 10
1318.3692932129
 20
2712.9351705679
  0
LWPOLYLINE
  5
1DA
330
1F
100
AcDbEntity
  8
0
  6
CONTINUOUS
 62
     7
100
AcDbPolyline
 90
        7
 70
   128
 43
0.0
 10
1318.1942045689
 20
2712.9983514914
 10
1318.1911051273
 20
2713.0028516421
 10
1318.2328283787
 20
2713.006636537
 10
1318.3195829391
 20
2712.9999310145
 10
1318.4417724609
 20
2712.9835993418
 10
1318.5875058174
 20
2712.9591614374
 10
1318.7116324902
 20
2712.9351705679
  0
ARC
  5
1DB
330
1F
100
AcDbEntity
  8
0
  6
CONTINUOUS
 62
     7
100
AcDbCircle
 10
1316.9747556698
 20
2704.0747902103
 30
0.0
 40
9.02901329997729
100
AcDbArc
 50
75.9390966013
 51
78.9090957854
  0
ARC
  5
1DC
330
1F
100
AcDbEntity
  8
0
  6
CONTINUOUS
 62
     7
100
AcDbCircle
 10
1318.0974179567
 20
2712.6152992327
 30
0.0
 40
0.3958790000438501
100
AcDbArc
 50
74.657677043
 51
110.4281901448
  0
ARC
  5
1DD
330
1F
100
AcDbEntity
  8
0
  6
CONTINUOUS
 62
     7
100
AcDbCircle
 10
1316.7993879813
 20
2711.6034716504
 30
0.0
 40
1.408729954714981
100
AcDbArc
 50
81.8130639422
 51
109.0351257488
  0
ARC
  5
1DE
330
1F
100
AcDbEntity
  8
0
  6
CONTINUOUS
 62
     7
100
AcDbCircle
 10
1315.8880333537
 20
2714.0005555558
 30
0.0
 40
1.157263691218976
100
AcDbArc
 50
277.7527173413
 51
292.9850253961
  0
LWPOLYLINE
  5
1DF
330
1F
100
AcDbEntity
  8
0
  6
CONTINUOUS
 62
     7
100
AcDbPolyline
 90
        7
 70
   128
 43
0.0
 10
1315.8058166504
 20
2712.9983514914
 10
1315.8089160919
 20
2713.0028516421
 10
1315.7671630383
 20
2713.006636537
 10
1315.6804084778
 20
2712.9999310145
 10
1315.558218956
 20
2712.9835993418
 10
1315.4125154018
 20
2712.9591614374
 10
1315.2883887291
 20
2712.9351705679
  0
ARC
  5
1E0
330
1F
100
AcDbEntity
  8
0
  6
CONTINUOUS
 62
     7
100
AcDbCircle
 10
1258.9624552958
 20
2704.3799015545
 30
0.0
 40
8.717523785877582
100
AcDbArc
 50
101.0717359112
 51
104.4334976786
  0
LWPOLYLINE
  5
1E1
330
1F
100
AcDbEntity
  8
0
  6
CONTINUOUS
 62
     7
100
AcDbPolyline
 90
        8
 70
   128
 43
0.0
 10
1256.7660450935
 20
2712.813249267
 10
1256.7652404308
 20
2712.8129214415
 10
1256.7922413349
 20
2712.8144413599
 10
1256.8659722805
 20
2712.8263324866
 10
1256.9788336754
 20
2712.8472537169
 10
1257.1203052998
 20
2712.8752678999
 10
1257.2762012482
 20
2712.9075438151
 10
1257.40467906
 20
2712.9351705679
  0
LWPOLYLINE
  5
1E2
330
1F
100
AcDbEntity
  8
0
  6
CONTINUOUS
 62
     7
100
AcDbPolyline
 90
        9
 70
   128
 43
0.0
 10
1257.40467906
 20
2712.9351705679
 10
1257.5572371483
 20
2712.9649132857
 10
1257.7139675617
 20
2712.9884869227
 10
1257.8542470932
 20
2713.0028516421
 10
1257.961833477
 20
2713.006636537
 10
1258.0267131329
 20
2712.9999310145
 10
1258.043462038
 20
2712.9835993418
 10
1258.0101728439
 20
2712.9591614374
 10
1257.9484522343
 20
2712.9351705679
  0
LWPOLYLINE
  5
1E3
330
1F
100
AcDbEntity
  8
0
  6
CONTINUOUS
 62
     7
100
AcDbPolyline
 90
       12
 70
   128
 43
0.0
 10
1257.9484522343
 20
2712.9351705679
 10
1257.8749001026
 20
2712.9020601878
 10
1257.8529953957
 20
2712.8696650633
 10
1257.885658741
 20
2712.8418892989
 10
1257.9683303833
 20
2712.8222495684
 10
1258.0891489983
 20
2712.8129214415
 10
1258.2330346107
 20
2712.8144711623
 10
1258.3845794201
 20
2712.8263920912
 10
1258.5290014744
 20
2712.8473431238
 10
1258.651638031
 20
2712.8753573069
 10
1258.7382137775
 20
2712.9076630244
 10
1258.7739765644
 20
2712.9351705679
  0
ARC
  5
1E4
330
1F
100
AcDbEntity
  8
0
  6
CONTINUOUS
 62
     7
100
AcDbCircle
 10
1259.217017889
 20
2711.7510634453
 30
0.0
 40
1.264276588873041
100
AcDbArc
 50
69.486339355
 51
110.513660645
  0
LWPOLYLINE
  5
1E5
330
1F
100
AcDbEntity
  8
0
  6
CONTINUOUS
 62
     7
100
AcDbPolyline
 90
       12
 70
   128
 43
0.0
 10
1259.6600592136
 20
2712.9351705679
 10
1259.7446978092
 20
2712.9020899901
 10
1259.8698675632
 20
2712.8696948656
 10
1260.021084547
 20
2712.8418892989
 10
1260.1788878441
 20
2712.8222495684
 10
1260.3238463402
 20
2712.8129214415
 10
1260.440582037
 20
2712.8144711623
 10
1260.5182468891
 20
2712.8263622889
 10
1260.5496883392
 20
2712.8473133215
 10
1260.5308234692
 20
2712.8753573069
 10
1260.461473465
 20
2712.907633222
 10
1260.3692948818
 20
2712.9351705679
  0
LWPOLYLINE
  5
1E6
330
1F
100
AcDbEntity
  8
0
  6
CONTINUOUS
 62
     7
100
AcDbPolyline
 90
        7
 70
   128
 43
0.0
 10
1260.1942062378
 20
2712.9983514914
 10
1260.1911067963
 20
2713.0028516421
 10
1260.2328300476
 20
2713.006636537
 10
1260.3195846081
 20
2712.9999310145
 10
1260.4417741299
 20
2712.9835993418
 10
1260.5875074863
 20
2712.9591614374
 10
1260.7116341591
 20
2712.9351705679
  0
ARC
  5
1E7
330
1F
100
AcDbEntity
  8
0
  6
CONTINUOUS
 62
     7
100
AcDbCircle
 10
1258.9747573387
 20
2704.0747902103
 30
0.0
 40
9.02901329997729
100
AcDbArc
 50
75.9390966013
 51
78.9090957854
  0
ARC
  5
1E8
330
1F
100
AcDbEntity
  8
0
  6
CONTINUOUS
 62
     7
100
AcDbCircle
 10
1260.0974196257
 20
2712.6152992327
 30
0.0
 40
0.3958790000438501
100
AcDbArc
 50
74.657677043
 51
110.4281901448
  0
ARC
  5
1E9
330
1F
100
AcDbEntity
  8
0
  6
CONTINUOUS
 62
     7
100
AcDbCircle
 10
1258.7993896502
 20
2711.6034716504
 30
0.0
 40
1.408729954714981
100
AcDbArc
 50
81.8130639422
 51
109.0351257488
  0
ARC
  5
1EA
330
1F
100
AcDbEntity
  8
0
  6
CONTINUOUS
 62
     7
100
AcDbCircle
 10
1257.8880350226
 20
2714.0005555558
 30
0.0
 40
1.157263691218976
100
AcDbArc
 50
277.7527173413
 51
292.9850253961
  0
LWPOLYLINE
  5
1EB
330
1F
100
AcDbEntity
  8
0
  6
CONTINUOUS
 62
     7
100
AcDbPolyline
 90
        7
 70
   128
 43
0.0
 10
1257.8058183193
 20
2712.9983514914
 10
1257.8088879585
 20
2713.0028516421
 10
1257.7671647072
 20
2713.006636537
 10
1257.6804101467
 20
2712.9999310145
 10
1257.5582206249
 20
2712.9835993418
 10
1257.4124872684
 20
2712.9591614374
 10
1257.2883605957
 20
2712.9351705679
  0
ARC
  5
1EC
330
1F
100
AcDbEntity
  8
0
  6
CONTINUOUS
 62
     7
100
AcDbCircle
 10
919.7543027406
 20
2428.26228669
 30
0.0
 40
0.4626104552090084
100
AcDbArc
 50
345.0
 51
135.0
  0
ARC
  5
1ED
330
1F
100
AcDbEntity
  8
0
  6
CONTINUOUS
 62
     7
100
AcDbCircle
 10
920.6479975129
 20
2428.0228218975
 30
0.0
 40
0.4626104552090084
100
AcDbArc
 50
165.0
 51
15.0
  0
ARC
  5
1EE
330
1F
100
AcDbEntity
  8
0
  6
CONTINUOUS
 62
     7
100
AcDbCircle
 10
921.5416922853
 20
2428.26228669
 30
0.0
 40
0.4626104552090084
100
AcDbArc
 50
45.0
 51
195.0
  0
ARC
  5
1EF
330
1F
100
AcDbEntity
  8
0
  6
CONTINUOUS
 62
     7
100
AcDbCircle
 10
922.1959222652
 20
2428.9165166699
 30
0.0
 40
0.4626104552093331
100
AcDbArc
 50
225.0
 51
75.0
  0
ARC
  5
1F0
330
1F
100
AcDbEntity
  8
0
  6
CONTINUOUS
 62
     7
100
AcDbCircle
 10
922.4353870577
 20
2429.8102114423
 30
0.0
 40
0.4626104552092869
100
AcDbArc
 50
105.0
 51
255.0
  0
ARC
  5
1F1
330
1F
100
AcDbEntity
  8
0
  6
CONTINUOUS
 62
     7
100
AcDbCircle
 10
922.1959222652
 20
2430.7039062147
 30
0.0
 40
0.4626104552090116
100
AcDbArc
 50
285.0
 51
135.0
  0
ARC
  5
1F2
330
1F
100
AcDbEntity
  8
0
  6
CONTINUOUS
 62
     7
100
AcDbCircle
 10
921.5416922853
 20
2431.3581361945
 30
0.0
 40
0.4626104552091261
100
AcDbArc
 50
165.0
 51
315.0
  0
ARC
  5
1F3
330
1F
100
AcDbEntity
  8
0
  6
CONTINUOUS
 62
     7
100
AcDbCircle
 10
920.6479975129
 20
2431.5976009871
 30
0.0
 40
0.4626104552091261
100
AcDbArc
 50
345.0
 51
195.0
  0
ARC
  5
1F4
330
1F
100
AcDbEntity
  8
0
  6
CONTINUOUS
 62
     7
100
AcDbCircle
 10
919.7543027406
 20
2431.3581361945
 30
0.0
 40
0.4626104552091261
100
AcDbArc
 50
225.0
 51
15.0
  0
ARC
  5
1F5
330
1F
100
AcDbEntity
  8
0
  6
CONTINUOUS
 62
     7
100
AcDbCircle
 10
919.1000727607
 20
2430.7039062147
 30
0.0
 40
0.4626104552090116
100
AcDbArc
 50
45.0
 51
255.0
  0
ARC
  5
1F6
330
1F
100
AcDbEntity
  8
0
  6
CONTINUOUS
 62
     7
100
AcDbCircle
 10
918.8606079682
 20
2429.8102114423
 30
0.0
 40
0.4626104552092575
100
AcDbArc
 50
285.0
 51
75.0
  0
ARC
  5
1F7
330
1F
100
AcDbEntity
  8
0
  6
CONTINUOUS
 62
     7
100
AcDbCircle
 10
919.1000727607
 20
2428.9165166699
 30
0.0
 40
0.4626104552093331
100
AcDbArc
 50
105.0
 51
315.0
  0
CIRCLE
  5
1F8
330
1F
100
AcDbEntity
  8
0
  6
CONTINUOUS
 62
     7
100
AcDbCircle
 10
920.6479975129
 20
2429.8102114423
 30
0.0
 40
4.650000000000546
  0
ARC
  5
1F9
330
1F
100
AcDbEntity
  8
0
  6
CONTINUOUS
 62
     7
100
AcDbCircle
 10
978.4583077147
 20
2428.26228669
 30
0.0
 40
0.4626104552090163
100
AcDbArc
 50
345.0
 51
135.0
  0
ARC
  5
1FA
330
1F
100
AcDbEntity
  8
0
  6
CONTINUOUS
 62
     7
100
AcDbCircle
 10
979.3520024871
 20
2428.0228218975
 30
0.0
 40
0.4626104552088907
100
AcDbArc
 50
165.0000000001
 51
14.9999999999
  0
ARC
  5
1FB
330
1F
100
AcDbEntity
  8
0
  6
CONTINUOUS
 62
     7
100
AcDbCircle
 10
980.2456972594
 20
2428.26228669
 30
0.0
 40
0.4626104552091261
100
AcDbArc
 50
45.0
 51
195.0
  0
ARC
  5
1FC
330
1F
100
AcDbEntity
  8
0
  6
CONTINUOUS
 62
     7
100
AcDbCircle
 10
980.8999272393
 20
2428.9165166699
 30
0.0
 40
0.4626104552092575
100
AcDbArc
 50
225.0
 51
75.0
  0
ARC
  5
1FD
330
1F
100
AcDbEntity
  8
0
  6
CONTINUOUS
 62
     7
100
AcDbCircle
 10
981.1393920318
 20
2429.8102114423
 30
0.0
 40
0.4626104552092869
100
AcDbArc
 50
105.0
 51
255.0
  0
ARC
  5
1FE
330
1F
100
AcDbEntity
  8
0
  6
CONTINUOUS
 62
     7
100
AcDbCircle
 10
980.8999272393
 20
2430.7039062147
 30
0.0
 40
0.4626104552090116
100
AcDbArc
 50
285.0
 51
135.0
  0
ARC
  5
1FF
330
1F
100
AcDbEntity
  8
0
  6
CONTINUOUS
 62
     7
100
AcDbCircle
 10
980.2456972594
 20
2431.3581361945
 30
0.0
 40
0.4626104552091261
100
AcDbArc
 50
165.0
 51
315.0
  0
ARC
  5
200
330
1F
100
AcDbEntity
  8
0
  6
CONTINUOUS
 62
     7
100
AcDbCircle
 10
979.3520024871
 20
2431.5976009871
 30
0.0
 40
0.4626104552090084
100
AcDbArc
 50
345.0
 51
195.0
  0
ARC
  5
201
330
1F
100
AcDbEntity
  8
0
  6
CONTINUOUS
 62
     7
100
AcDbCircle
 10
978.4583077147
 20
2431.3581361945
 30
0.0
 40
0.4626104552090163
100
AcDbArc
 50
225.0
 51
15.0
  0
ARC
  5
202
330
1F
100
AcDbEntity
  8
0
  6
CONTINUOUS
 62
     7
100
AcDbCircle
 10
977.8040777348
 20
2430.7039062147
 30
0.0
 40
0.4626104552090116
100
AcDbArc
 50
45.0
 51
255.0
  0
ARC
  5
203
330
1F
100
AcDbEntity
  8
0
  6
CONTINUOUS
 62
     7
100
AcDbCircle
 10
977.5646129423
 20
2429.8102114423
 30
0.0
 40
0.4626104552092869
100
AcDbArc
 50
285.0
 51
75.0
  0
ARC
  5
204
330
1F
100
AcDbEntity
  8
0
  6
CONTINUOUS
 62
     7
100
AcDbCircle
 10
977.8040777348
 20
2428.9165166699
 30
0.0
 40
0.4626104552092575
100
AcDbArc
 50
105.0
 51
315.0
  0
CIRCLE
  5
205
330
1F
100
AcDbEntity
  8
0
  6
CONTINUOUS
 62
     7
100
AcDbCircle
 10
979.3520024871
 20
2429.8102114423
 30
0.0
 40
4.650000000000091
  0
ARC
  5
206
330
1F
100
AcDbEntity
  8
0
  6
CONTINUOUS
 62
     7
100
AcDbCircle
 10
978.4583077147
 20
2369.5582817159
 30
0.0
 40
0.4626104552090116
100
AcDbArc
 50
345.0
 51
135.0
  0
ARC
  5
207
330
1F
100
AcDbEntity
  8
0
  6
CONTINUOUS
 62
     7
100
AcDbCircle
 10
979.3520024871
 20
2369.3188169234
 30
0.0
 40
0.4626104552091183
100
AcDbArc
 50
165.0
 51
15.0000000001
  0
ARC
  5
208
330
1F
100
AcDbEntity
  8
0
  6
CONTINUOUS
 62
     7
100
AcDbCircle
 10
980.2456972594
 20
2369.5582817159
 30
0.0
 40
0.4626104552090084
100
AcDbArc
 50
45.0
 51
195.0
  0
ARC
  5
209
330
1F
100
AcDbEntity
  8
0
  6
CONTINUOUS
 62
     7
100
AcDbCircle
 10
980.8999272393
 20
2370.2125116958
 30
0.0
 40
0.4626104552092575
100
AcDbArc
 50
225.0
 51
75.0
  0
ARC
  5
20A
330
1F
100
AcDbEntity
  8
0
  6
CONTINUOUS
 62
     7
100
AcDbCircle
 10
978.4583077147
 20
2372.6541312204
 30
0.0
 40
0.4626104552090116
100
AcDbArc
 50
225.0
 51
15.0
  0
ARC
  5
20B
330
1F
100
AcDbEntity
  8
0
  6
CONTINUOUS
 62
     7
100
AcDbCircle
 10
977.8040777348
 20
2370.2125116958
 30
0.0
 40
0.4626104552092575
100
AcDbArc
 50
105.0
 51
315.0
  0
ARC
  5
20C
330
1F
100
AcDbEntity
  8
0
  6
CONTINUOUS
 62
     7
100
AcDbCircle
 10
980.2456972594
 20
2372.6541312204
 30
0.0
 40
0.4626104552090084
100
AcDbArc
 50
165.0
 51
315.0
  0
CIRCLE
  5
20D
330
1F
100
AcDbEntity
  8
0
  6
CONTINUOUS
 62
     7
100
AcDbCircle
 10
979.3520024871
 20
2371.1062064682
 30
0.0
 40
4.650000000000091
  0
ARC
  5
20E
330
1F
100
AcDbEntity
  8
0
  6
CONTINUOUS
 62
     7
100
AcDbCircle
 10
981.1393920318
 20
2371.1062064682
 30
0.0
 40
0.4626104552092869
100
AcDbArc
 50
105.0
 51
255.0
  0
ARC
  5
20F
330
1F
100
AcDbEntity
  8
0
  6
CONTINUOUS
 62
     7
100
AcDbCircle
 10
980.8999272393
 20
2371.9999012406
 30
0.0
 40
0.4626104552092575
100
AcDbArc
 50
285.0
 51
135.0
  0
ARC
  5
210
330
1F
100
AcDbEntity
  8
0
  6
CONTINUOUS
 62
     7
100
AcDbCircle
 10
977.8040777348
 20
2371.9999012406
 30
0.0
 40
0.4626104552092575
100
AcDbArc
 50
45.0
 51
255.0
  0
ARC
  5
211
330
1F
100
AcDbEntity
  8
0
  6
CONTINUOUS
 62
     7
100
AcDbCircle
 10
977.5646129423
 20
2371.1062064682
 30
0.0
 40
0.4626104552092869
100
AcDbArc
 50
285.0
 51
75.0
  0
ARC
  5
212
330
1F
100
AcDbEntity
  8
0
  6
CONTINUOUS
 62
     7
100
AcDbCircle
 10
979.3520024871
 20
2372.893596013
 30
0.0
 40
0.4626104552091183
100
AcDbArc
 50
344.9999999999
 51
195.0
  0
ARC
  5
213
330
1F
100
AcDbEntity
  8
0
  6
CONTINUOUS
 62
     7
100
AcDbCircle
 10
919.7543027406
 20
2369.5582817159
 30
0.0
 40
0.4626104552092527
100
AcDbArc
 50
345.0
 51
135.0
  0
ARC
  5
214
330
1F
100
AcDbEntity
  8
0
  6
CONTINUOUS
 62
     7
100
AcDbCircle
 10
920.6479975129
 20
2369.3188169234
 30
0.0
 40
0.4626104552091261
100
AcDbArc
 50
164.9999999999
 51
15.0
  0
ARC
  5
215
330
1F
100
AcDbEntity
  8
0
  6
CONTINUOUS
 62
     7
100
AcDbCircle
 10
921.5416922853
 20
2369.5582817159
 30
0.0
 40
0.4626104552092527
100
AcDbArc
 50
45.0
 51
195.0000000001
  0
ARC
  5
216
330
1F
100
AcDbEntity
  8
0
  6
CONTINUOUS
 62
     7
100
AcDbCircle
 10
922.1959222652
 20
2370.2125116958
 30
0.0
 40
0.4626104552092869
100
AcDbArc
 50
225.0
 51
75.0
  0
ARC
  5
217
330
1F
100
AcDbEntity
  8
0
  6
CONTINUOUS
 62
     7
100
AcDbCircle
 10
922.4353870577
 20
2371.1062064682
 30
0.0
 40
0.4626104552088182
100
AcDbArc
 50
105.0
 51
255.0
  0
ARC
  5
218
330
1F
100
AcDbEntity
  8
0
  6
CONTINUOUS
 62
     7
100
AcDbCircle
 10
919.1000727607
 20
2370.2125116958
 30
0.0
 40
0.4626104552092575
100
AcDbArc
 50
105.0
 51
315.0
  0
CIRCLE
  5
219
330
1F
100
AcDbEntity
  8
0
  6
CONTINUOUS
 62
     7
100
AcDbCircle
 10
920.6479975129
 20
2371.1062064682
 30
0.0
 40
4.650000000000091
  0
ARC
  5
21A
330
1F
100
AcDbEntity
  8
0
  6
CONTINUOUS
 62
     7
100
AcDbCircle
 10
922.1959222652
 20
2371.9999012406
 30
0.0
 40
0.4626104552092869
100
AcDbArc
 50
285.0
 51
135.0
  0
ARC
  5
21B
330
1F
100
AcDbEntity
  8
0
  6
CONTINUOUS
 62
     7
100
AcDbCircle
 10
918.8606079682
 20
2371.1062064682
 30
0.0
 40
0.4626104552088182
100
AcDbArc
 50
285.0
 51
75.0
  0
ARC
  5
21C
330
1F
100
AcDbEntity
  8
0
  6
CONTINUOUS
 62
     7
100
AcDbCircle
 10
920.6479975129
 20
2372.893596013
 30
0.0
 40
0.4626104552091261
100
AcDbArc
 50
345.0
 51
195.0000000001
  0
ARC
  5
21D
330
1F
100
AcDbEntity
  8
0
  6
CONTINUOUS
 62
     7
100
AcDbCircle
 10
919.1000727607
 20
2371.9999012406
 30
0.0
 40
0.4626104552092575
100
AcDbArc
 50
45.0
 51
255.0
  0
ARC
  5
21E
330
1F
100
AcDbEntity
  8
0
  6
CONTINUOUS
 62
     7
100
AcDbCircle
 10
919.7543027406
 20
2372.6541312204
 30
0.0
 40
0.4626104552091183
100
AcDbArc
 50
225.0
 51
15.0
  0
ARC
  5
21F
330
1F
100
AcDbEntity
  8
0
  6
CONTINUOUS
 62
     7
100
AcDbCircle
 10
921.5416922853
 20
2372.6541312204
 30
0.0
 40
0.4626104552090084
100
AcDbArc
 50
165.0
 51
315.0
  0
LINE
  5
220
330
1F
100
AcDbEntity
  8
0
  6
CONTINUOUS
 62
     7
100
AcDbLine
 10
1437.445127964
 20
2620.4050541291
 30
0.0
 11
1437.4769568443
 21
2620.4050541291
 31
0.0
  0
LINE
  5
221
330
1F
100
AcDbEntity
  8
0
  6
CONTINUOUS
 62
     7
100
AcDbLine
 10
1437.4466776848
 20
2619.5113569865
 30
0.0
 11
1437.4769568443
 21
2619.5113569865
 31
0.0
  0
LINE
  5
222
330
1F
100
AcDbEntity
  8
0
  6
CONTINUOUS
 62
     7
100
AcDbLine
 10
1437.3833179474
 20
2621.6258615622
 30
0.0
 11
1437.4769568443
 21
2621.6258615622
 31
0.0
  0
LINE
  5
223
330
1F
100
AcDbEntity
  8
0
  6
CONTINUOUS
 62
     7
100
AcDbLine
 10
1437.3829007149
 20
2618.2905495533
 30
0.0
 11
1437.4769568443
 21
2618.2905495533
 31
0.0
  0
LINE
  5
224
330
1F
100
AcDbEntity
  8
0
  6
CONTINUOUS
 62
     7
100
AcDbLine
 10
1437.445127964
 20
2562.405055798
 30
0.0
 11
1437.4769568443
 21
2562.405055798
 31
0.0
  0
LINE
  5
225
330
1F
100
AcDbEntity
  8
0
  6
CONTINUOUS
 62
     7
100
AcDbLine
 10
1437.4466776848
 20
2561.5113586554
 30
0.0
 11
1437.4769568443
 21
2561.5113586554
 31
0.0
  0
LINE
  5
226
330
1F
100
AcDbEntity
  8
0
  6
CONTINUOUS
 62
     7
100
AcDbLine
 10
1437.3833179474
 20
2563.6258632311
 30
0.0
 11
1437.4769568443
 21
2563.6258632311
 31
0.0
  0
LINE
  5
227
330
1F
100
AcDbEntity
  8
0
  6
CONTINUOUS
 62
     7
100
AcDbLine
 10
1437.3829007149
 20
2560.2905512223
 30
0.0
 11
1437.4769568443
 21
2560.2905512223
 31
0.0
  0
LINE
  5
228
330
1F
100
AcDbEntity
  8
0
  6
CONTINUOUS
 62
     7
100
AcDbLine
 10
1315.9484505653
 20
2712.8269583353
 30
0.0
 11
1315.9484505653
 21
2712.9351705679
 31
0.0
  0
LINE
  5
229
330
1F
100
AcDbEntity
  8
0
  6
CONTINUOUS
 62
     7
100
AcDbLine
 10
1316.3399338722
 20
2712.8228754172
 30
0.0
 11
1316.3399338722
 21
2712.9351705679
 31
0.0
  0
LINE
  5
22A
330
1F
100
AcDbEntity
  8
0
  6
CONTINUOUS
 62
     7
100
AcDbLine
 10
1257.9484522343
 20
2712.8269583353
 30
0.0
 11
1257.9484522343
 21
2712.9351705679
 31
0.0
  0
LINE
  5
22B
330
1F
100
AcDbEntity
  8
0
  6
CONTINUOUS
 62
     7
100
AcDbLine
 10
1258.3399355412
 20
2712.8228754172
 30
0.0
 11
1258.3399355412
 21
2712.9351705679
 31
0.0
  0
ARC
  5
22C
330
1F
100
AcDbEntity
  8
0
  6
CONTINUOUS
 62
     7
100
AcDbCircle
 10
1646.2186567164
 20
3240.0
 30
0.0
 40
8.700000000000058
100
AcDbArc
 50
189.0678061293
 51
206.2915552747
  0
ARC
  5
22D
330
1F
100
AcDbEntity
  8
0
  6
CONTINUOUS
 62
     7
100
AcDbCircle
 10
1646.2186567164
 20
3240.0
 30
0.0
 40
8.700000000000239
100
AcDbArc
 50
153.7084447253
 51
170.8830791135
  0
LINE
  5
22E
330
1F
100
AcDbEntity
  8
0
  6
CONTINUOUS
 62
     7
100
AcDbLine
 10
1637.6583761073
 20
3240.6249202788
 30
0.0
 11
1637.7784794665
 21
3240.6249202788
 31
0.0
  0
LINE
  5
22F
330
1F
100
AcDbEntity
  8
0
  6
CONTINUOUS
 62
     7
100
AcDbLine
 10
1637.7558297015
 20
3238.6904217303
 30
0.0
 11
1637.6218980647
 21
3238.6904217303
 31
0.0
  0
LINE
  5
230
330
1F
100
AcDbEntity
  8
0
  6
CONTINUOUS
 62
     7
100
AcDbLine
 10
1637.6218980647
 20
3241.3095802069
 30
0.0
 11
1637.6784032679
 21
3241.3095802069
 31
0.0
  0
LINE
  5
231
330
1F
100
AcDbEntity
  8
0
  6
CONTINUOUS
 62
     7
100
AcDbLine
 10
1637.679982791
 20
3240.2220487595
 30
0.0
 11
1637.8129607535
 21
3240.2220487595
 31
0.0
  0
ARC
  5
232
330
1F
100
AcDbEntity
  8
0
  6
CONTINUOUS
 62
     7
100
AcDbCircle
 10
1646.2186567164
 20
3145.0
 30
0.0
 40
8.700000000000058
100
AcDbArc
 50
189.0678061293
 51
206.2915552747
  0
ARC
  5
233
330
1F
100
AcDbEntity
  8
0
  6
CONTINUOUS
 62
     7
100
AcDbCircle
 10
1646.2186567164
 20
3145.0
 30
0.0
 40
8.700000000000038
100
AcDbArc
 50
153.7084447253
 51
170.8830791135
  0
LINE
  5
234
330
1F
100
AcDbEntity
  8
0
  6
CONTINUOUS
 62
     7
100
AcDbLine
 10
1637.6583761073
 20
3145.6249214709
 30
0.0
 11
1637.7784794665
 21
3145.6249214709
 31
0.0
  0
LINE
  5
235
330
1F
100
AcDbEntity
  8
0
  6
CONTINUOUS
 62
     7
100
AcDbLine
 10
1637.7558297015
 20
3143.6904191971
 30
0.0
 11
1637.6218980647
 21
3143.6904191971
 31
0.0
  0
LINE
  5
236
330
1F
100
AcDbEntity
  8
0
  6
CONTINUOUS
 62
     7
100
AcDbLine
 10
1637.6218980647
 20
3146.309581399
 30
0.0
 11
1637.6784032679
 21
3146.309581399
 31
0.0
  0
LINE
  5
237
330
1F
100
AcDbEntity
  8
0
  6
CONTINUOUS
 62
     7
100
AcDbLine
 10
1637.679982791
 20
3145.2220462263
 30
0.0
 11
1637.8129607535
 21
3145.2220462263
 31
0.0
  0
LINE
  5
238
330
1F
100
AcDbEntity
  8
0
  6
CONTINUOUS
 62
     7
100
AcDbLine
 10
2192.4186567164
 20
3415.5
 30
0.0
 11
1647.9186567164
 21
3415.5
 31
0.0
  0
LINE
  5
239
330
1F
100
AcDbEntity
  8
0
  6
CONTINUOUS
 62
     7
100
AcDbLine
 10
1647.9186567164
 20
3415.5
 30
0.0
 11
1647.9186567164
 21
3425.0
 31
0.0
  0
LINE
  5
23A
330
1F
100
AcDbEntity
  8
0
  6
CONTINUOUS
 62
     7
100
AcDbLine
 10
1647.9186567164
 20
3425.0
 30
0.0
 11
2192.4186567164
 21
3425.0
 31
0.0
  0
LINE
  5
23B
330
1F
100
AcDbEntity
  8
0
  6
CONTINUOUS
 62
     7
100
AcDbLine
 10
2192.4186567164
 20
3415.5
 30
0.0
 11
2192.4186567164
 21
3425.0
 31
0.0
  0
ARC
  5
23C
330
1F
100
AcDbEntity
  8
0
  6
CONTINUOUS
 62
     7
100
AcDbCircle
 10
1647.9186567164
 20
3415.5
 30
0.0
 40
9.5
100
AcDbArc
 50
90.0
 51
180.0
  0
LINE
  5
23D
330
1F
100
AcDbEntity
  8
0
  6
CONTINUOUS
 62
     7
100
AcDbLine
 10
1647.9186567164
 20
3415.5
 30
0.0
 11
1638.4186567164
 21
3415.5
 31
0.0
  0
LINE
  5
23E
330
1F
100
AcDbEntity
  8
0
  6
CONTINUOUS
 62
     7
100
AcDbLine
 10
1647.9186567164
 20
3415.5
 30
0.0
 11
1647.9186567164
 21
3413.0
 31
0.0
  0
LINE
  5
23F
330
1F
100
AcDbEntity
  8
0
  6
CONTINUOUS
 62
     7
100
AcDbLine
 10
1638.4186567164
 20
3415.5
 30
0.0
 11
1638.4186567164
 21
3413.0
 31
0.0
  0
LINE
  5
240
330
1F
100
AcDbEntity
  8
0
  6
CONTINUOUS
 62
     7
100
AcDbLine
 10
1638.4186567164
 20
3413.0
 30
0.0
 11
1647.9186567164
 21
3413.0
 31
0.0
  0
LINE
  5
241
330
1F
100
AcDbEntity
  8
0
  6
CONTINUOUS
 62
     7
100
AcDbLine
 10
2192.4186567164
 20
3415.5
 30
0.0
 11
2192.4186567164
 21
3413.0
 31
0.0
  0
LINE
  5
242
330
1F
100
AcDbEntity
  8
0
  6
CONTINUOUS
 62
     7
100
AcDbLine
 10
1647.9186567164
 20
3413.0
 30
0.0
 11
2192.4186567164
 21
3413.0
 31
0.0
  0
ARC
  5
243
330
1F
100
AcDbEntity
  8
0
  6
CONTINUOUS
 62
     7
100
AcDbCircle
 10
2192.4186567164
 20
3415.5
 30
0.0
 40
9.500000000000455
100
AcDbArc
 50
0.0
 51
90.0
  0
LINE
  5
244
330
1F
100
AcDbEntity
  8
0
  6
CONTINUOUS
 62
     7
100
AcDbLine
 10
2201.9186567164
 20
3415.5
 30
0.0
 11
2192.4186567164
 21
3415.5
 31
0.0
  0
LINE
  5
245
330
1F
100
AcDbEntity
  8
0
  6
CONTINUOUS
 62
     7
100
AcDbLine
 10
2201.9186567164
 20
3415.5
 30
0.0
 11
2201.9186502791
 21
3413.0404114723
 31
0.0
  0
LINE
  5
246
330
1F
100
AcDbEntity
  8
0
  6
CONTINUOUS
 62
     7
100
AcDbLine
 10
2201.9186502791
 20
3413.0404114723
 30
0.0
 11
2201.9012324114
 21
3413.0
 31
0.0
  0
LINE
  5
247
330
1F
100
AcDbEntity
  8
0
  6
CONTINUOUS
 62
     7
100
AcDbLine
 10
2192.4186567164
 20
3413.0
 30
0.0
 11
2201.9012324114
 21
3413.0
 31
0.0
  0
LINE
  5
248
330
1F
100
AcDbEntity
  8
0
  6
CONTINUOUS
 62
     7
100
AcDbLine
 10
2201.9186502791
 20
3415.0000035763
 30
0.0
 11
2201.9186502791
 21
3413.6330753565
 31
0.0
  0
LINE
  5
249
330
1F
100
AcDbEntity
  8
0
  6
CONTINUOUS
 62
     7
100
AcDbLine
 10
2201.9186502791
 20
3413.6330753565
 30
0.0
 11
2201.9186502791
 21
3413.0404114723
 31
0.0
  0
LINE
  5
24A
330
1F
100
AcDbEntity
  8
0
  6
CONTINUOUS
 62
     7
100
AcDbLine
 10
2192.4186567164
 20
2987.0
 30
0.0
 11
2192.4186567164
 21
3413.0
 31
0.0
  0
LINE
  5
24B
330
1F
100
AcDbEntity
  8
0
  6
CONTINUOUS
 62
     7
100
AcDbLine
 10
1647.9186567164
 20
2987.0
 30
0.0
 11
2192.4186567164
 21
2987.0
 31
0.0
  0
LINE
  5
24C
330
1F
100
AcDbEntity
  8
0
  6
CONTINUOUS
 62
     7
100
AcDbLine
 10
1647.9186567164
 20
2987.0
 30
0.0
 11
1647.9186567164
 21
3413.0
 31
0.0
  0
LINE
  5
24D
330
1F
100
AcDbEntity
  8
0
  6
CONTINUOUS
 62
     7
100
AcDbLine
 10
1647.9186567164
 20
3413.0
 30
0.0
 11
2192.4186567164
 21
3413.0
 31
0.0
  0
CIRCLE
  5
24E
330
1F
100
AcDbEntity
  8
0
  6
CONTINUOUS
 62
     7
100
AcDbCircle
 10
2145.1686567164
 20
3310.0
 30
0.0
 40
11.0
  0
CIRCLE
  5
24F
330
1F
100
AcDbEntity
  8
0
  6
CONTINUOUS
 62
     7
100
AcDbCircle
 10
2145.1686567164
 20
3090.0
 30
0.0
 40
10.99999999999955
  0
CIRCLE
  5
250
330
1F
100
AcDbEntity
  8
0
  6
CONTINUOUS
 62
     7
100
AcDbCircle
 10
1695.1686567164
 20
3310.0
 30
0.0
 40
11.0
  0
CIRCLE
  5
251
330
1F
100
AcDbEntity
  8
0
  6
CONTINUOUS
 62
     7
100
AcDbCircle
 10
1695.1686567164
 20
3090.0
 30
0.0
 40
11.00000000000023
  0
CIRCLE
  5
252
330
1F
100
AcDbEntity
  8
0
  6
CONTINUOUS
 62
     7
100
AcDbCircle
 10
1695.1686567164
 20
2998.0
 30
0.0
 40
7.0
  0
CIRCLE
  5
253
330
1F
100
AcDbEntity
  8
0
  6
CONTINUOUS
 62
     7
100
AcDbCircle
 10
2145.1686567164
 20
2998.0
 30
0.0
 40
7.000000000000455
  0
CIRCLE
  5
254
330
1F
100
AcDbEntity
  8
0
  6
CONTINUOUS
 62
     7
100
AcDbCircle
 10
1695.1686567164
 20
3402.0
 30
0.0
 40
7.0
  0
CIRCLE
  5
255
330
1F
100
AcDbEntity
  8
0
  6
CONTINUOUS
 62
     7
100
AcDbCircle
 10
2145.1686567164
 20
3402.0
 30
0.0
 40
7.000000000000455
  0
LINE
  5
256
330
1F
100
AcDbEntity
  8
0
  6
CONTINUOUS
 62
     7
100
AcDbLine
 10
1638.4186567164
 20
2987.0
 30
0.0
 11
1638.4186567164
 21
3413.0
 31
0.0
  0
LINE
  5
257
330
1F
100
AcDbEntity
  8
0
  6
CONTINUOUS
 62
     7
100
AcDbLine
 10
1647.9186567164
 20
3413.0
 30
0.0
 11
1638.4186567164
 21
3413.0
 31
0.0
  0
LINE
  5
258
330
1F
100
AcDbEntity
  8
0
  6
CONTINUOUS
 62
     7
100
AcDbLine
 10
1647.9186567164
 20
2987.0
 30
0.0
 11
1638.4186567164
 21
2987.0
 31
0.0
  0
CIRCLE
  5
259
330
1F
100
AcDbEntity
  8
0
  6
CONTINUOUS
 62
     7
100
AcDbCircle
 10
1695.1686567164
 20
3310.0
 30
0.0
 40
5.499999999999773
  0
CIRCLE
  5
25A
330
1F
100
AcDbEntity
  8
0
  6
CONTINUOUS
 62
     7
100
AcDbCircle
 10
1695.1686567164
 20
3090.0
 30
0.0
 40
5.5
  0
CIRCLE
  5
25B
330
1F
100
AcDbEntity
  8
0
  6
CONTINUOUS
 62
     7
100
AcDbCircle
 10
2145.1686567164
 20
3090.0
 30
0.0
 40
5.5
  0
CIRCLE
  5
25C
330
1F
100
AcDbEntity
  8
0
  6
CONTINUOUS
 62
     7
100
AcDbCircle
 10
2145.1686567164
 20
3310.0
 30
0.0
 40
5.5
  0
LINE
  5
25D
330
1F
100
AcDbEntity
  8
0
  6
CONTINUOUS
 62
     7
100
AcDbLine
 10
2201.9186567164
 20
2987.0
 30
0.0
 11
2201.9186567164
 21
3413.0
 31
0.0
  0
LINE
  5
25E
330
1F
100
AcDbEntity
  8
0
  6
CONTINUOUS
 62
     7
100
AcDbLine
 10
2201.9186567164
 20
3413.0
 30
0.0
 11
2192.4186567164
 21
3413.0
 31
0.0
  0
LINE
  5
25F
330
1F
100
AcDbEntity
  8
0
  6
CONTINUOUS
 62
     7
100
AcDbLine
 10
2201.9186567164
 20
2987.0
 30
0.0
 11
2192.4186567164
 21
2987.0
 31
0.0
  0
LINE
  5
260
330
1F
100
AcDbEntity
  8
0
  6
CONTINUOUS
 62
     7
100
AcDbLine
 10
1638.4186567164
 20
2984.5
 30
0.0
 11
1647.9186567164
 21
2984.5
 31
0.0
  0
LINE
  5
261
330
1F
100
AcDbEntity
  8
0
  6
CONTINUOUS
 62
     7
100
AcDbLine
 10
1647.9186567164
 20
2984.5
 30
0.0
 11
1647.9186567164
 21
2975.0
 31
0.0
  0
ARC
  5
262
330
1F
100
AcDbEntity
  8
0
  6
CONTINUOUS
 62
     7
100
AcDbCircle
 10
1647.9186567164
 20
2984.5
 30
0.0
 40
9.5
100
AcDbArc
 50
180.0
 51
270.0
  0
LINE
  5
263
330
1F
100
AcDbEntity
  8
0
  6
CONTINUOUS
 62
     7
100
AcDbLine
 10
1647.9186567164
 20
2984.5
 30
0.0
 11
2192.4186567164
 21
2984.5
 31
0.0
  0
LINE
  5
264
330
1F
100
AcDbEntity
  8
0
  6
CONTINUOUS
 62
     7
100
AcDbLine
 10
2192.4186567164
 20
2984.5
 30
0.0
 11
2192.4186567164
 21
2975.0
 31
0.0
  0
LINE
  5
265
330
1F
100
AcDbEntity
  8
0
  6
CONTINUOUS
 62
     7
100
AcDbLine
 10
2192.4186567164
 20
2975.0
 30
0.0
 11
1647.9186567164
 21
2975.0
 31
0.0
  0
LINE
  5
266
330
1F
100
AcDbEntity
  8
0
  6
CONTINUOUS
 62
     7
100
AcDbLine
 10
1647.9186567164
 20
2984.5
 30
0.0
 11
1647.9186567164
 21
2987.0
 31
0.0
  0
LINE
  5
267
330
1F
100
AcDbEntity
  8
0
  6
CONTINUOUS
 62
     7
100
AcDbLine
 10
2192.4186567164
 20
2987.0
 30
0.0
 11
1647.9186567164
 21
2987.0
 31
0.0
  0
LINE
  5
268
330
1F
100
AcDbEntity
  8
0
  6
CONTINUOUS
 62
     7
100
AcDbLine
 10
2192.4186567164
 20
2984.5
 30
0.0
 11
2192.4186567164
 21
2987.0
 31
0.0
  0
LINE
  5
269
330
1F
100
AcDbEntity
  8
0
  6
CONTINUOUS
 62
     7
100
AcDbLine
 10
1638.4186567164
 20
2984.5
 30
0.0
 11
1638.4186567164
 21
2987.0
 31
0.0
  0
LINE
  5
26A
330
1F
100
AcDbEntity
  8
0
  6
CONTINUOUS
 62
     7
100
AcDbLine
 10
1647.9186567164
 20
2987.0
 30
0.0
 11
1638.4186567164
 21
2987.0
 31
0.0
  0
ARC
  5
26B
330
1F
100
AcDbEntity
  8
0
  6
CONTINUOUS
 62
     7
100
AcDbCircle
 10
2192.4186567164
 20
2984.5
 30
0.0
 40
9.500000000000455
100
AcDbArc
 50
270.0
 51
0.0
  0
LINE
  5
26C
330
1F
100
AcDbEntity
  8
0
  6
CONTINUOUS
 62
     7
100
AcDbLine
 10
2192.4186567164
 20
2984.5
 30
0.0
 11
2201.9186567164
 21
2984.5
 31
0.0
  0
LINE
  5
26D
330
1F
100
AcDbEntity
  8
0
  6
CONTINUOUS
 62
     7
100
AcDbLine
 10
2201.9186567164
 20
2984.5
 30
0.0
 11
2201.9186502791
 21
2986.9595885277
 31
0.0
  0
LINE
  5
26E
330
1F
100
AcDbEntity
  8
0
  6
CONTINUOUS
 62
     7
100
AcDbLine
 10
2201.9186502791
 20
2986.9595885277
 30
0.0
 11
2201.9012324114
 21
2987.0
 31
0.0
  0
LINE
  5
26F
330
1F
100
AcDbEntity
  8
0
  6
CONTINUOUS
 62
     7
100
AcDbLine
 10
2201.9012324114
 20
2987.0
 30
0.0
 11
2192.4186567164
 21
2987.0
 31
0.0
  0
LINE
  5
270
330
1F
100
AcDbEntity
  8
0
  6
CONTINUOUS
 62
     7
100
AcDbLine
 10
2201.9186502791
 20
2984.9999964237
 30
0.0
 11
2201.9186502791
 21
2986.3669246435
 31
0.0
  0
LINE
  5
271
330
1F
100
AcDbEntity
  8
0
  6
CONTINUOUS
 62
     7
100
AcDbLine
 10
2201.9186502791
 20
2986.3669246435
 30
0.0
 11
2201.9186502791
 21
2986.9595885277
 31
0.0
  0
LWPOLYLINE
  5
272
330
1F
100
AcDbEntity
  8
0
  6
CONTINUOUS
 62
     7
100
AcDbPolyline
 90
       11
 70
   128
 43
0.0
 10
1637.7043014861
 20
3239.7763885558
 10
1637.7246862746
 20
3239.78029266
 10
1637.757081399
 20
3239.8397259414
 10
1637.7848869658
 20
3239.9457663298
 10
1637.8045863009
 20
3240.0844961405
 10
1637.8139442301
 20
3240.2379408479
 10
1637.8124243117
 20
3240.3884202242
 10
1637.8005331851
 20
3240.5208282173
 10
1637.7796119548
 20
3240.6224913895
 10
1637.7515977717
 20
3240.6825467944
 10
1637.7292758322
 20
3240.6895540655
  0
LINE
  5
273
330
1F
100
AcDbEntity
  8
0
  6
CONTINUOUS
 62
     7
100
AcDbLine
 10
1637.7193218566
 20
3240.6926721334
 30
0.0
 11
1637.6916951037
 21
3240.6600646675
 31
0.0
  0
LWPOLYLINE
  5
274
330
1F
100
AcDbEntity
  8
0
  6
CONTINUOUS
 62
     7
100
AcDbPolyline
 90
        9
 70
   128
 43
0.0
 10
1637.6916951037
 20
3240.6600646675
 10
1637.661952386
 20
3240.6255610287
 10
1637.638378749
 20
3240.6442843378
 10
1637.6240140296
 20
3240.7138541341
 10
1637.6202291346
 20
3240.8241227269
 10
1637.6269346572
 20
3240.961753577
 10
1637.6432663298
 20
3241.1124899983
 10
1637.6677042342
 20
3241.2615276873
 10
1637.6916951037
 20
3241.3692966104
  0
LWPOLYLINE
  5
275
330
1F
100
AcDbEntity
  8
0
  6
CONTINUOUS
 62
     7
100
AcDbPolyline
 90
       12
 70
   128
 43
0.0
 10
1637.6916951037
 20
3241.3692966104
 10
1637.7248054839
 20
3241.5095314384
 10
1637.7572006083
 20
3241.6667200625
 10
1637.7849763728
 20
3241.8224968016
 10
1637.8046161032
 20
3241.9569797814
 10
1637.8139442301
 20
3242.0546084642
 10
1637.8123945094
 20
3242.1062894166
 10
1637.8004735804
 20
3242.1084649861
 10
1637.7795225478
 20
3242.061381042
 10
1637.7515083647
 20
3241.9687256217
 10
1637.7192026473
 20
3241.8386794627
 10
1637.6916951037
 20
3241.7116247118
  0
LWPOLYLINE
  5
276
330
1F
100
AcDbEntity
  8
0
  6
CONTINUOUS
 62
     7
100
AcDbPolyline
 90
        6
 70
   128
 43
0.0
 10
1637.6916951037
 20
3241.7116247118
 10
1637.661952386
 20
3241.5621809661
 10
1637.638378749
 20
3241.4358228445
 10
1637.6240140296
 20
3241.3491427898
 10
1637.6202291346
 20
3241.3111336529
 10
1637.6218980647
 20
3241.3142628968
  0
ARC
  5
277
330
1F
100
AcDbEntity
  8
0
  6
CONTINUOUS
 62
     7
100
AcDbCircle
 10
1638.1894709928
 20
3240.5167723905
 30
0.0
 40
0.5865099825394337
100
AcDbArc
 50
162.856209394
 51
209.6946469211
  0
LWPOLYLINE
  5
278
330
1F
100
AcDbEntity
  8
0
  6
CONTINUOUS
 62
     7
100
AcDbPolyline
 90
        5
 70
   128
 43
0.0
 10
1637.7043014861
 20
3240.2236096561
 10
1637.7246862746
 20
3240.2197055519
 10
1637.757081399
 20
3240.1602759957
 10
1637.7848869658
 20
3240.0542356074
 10
1637.7926057673
 20
3239.9999991059
  0
ARC
  5
279
330
1F
100
AcDbEntity
  8
0
  6
CONTINUOUS
 62
     7
100
AcDbCircle
 10
1639.5288647787
 20
3239.1250013467
 30
0.0
 40
1.900718828656536
100
AcDbArc
 50
184.8499738171
 51
192.9389223897
  0
LWPOLYLINE
  5
27A
330
1F
100
AcDbEntity
  8
0
  6
CONTINUOUS
 62
     7
100
AcDbPolyline
 90
        3
 70
   128
 43
0.0
 10
1637.6282757617
 20
3238.6252477765
 10
1637.6240140296
 20
3238.650855422
 10
1637.6202291346
 20
3238.6888645589
  0
ARC
  5
27B
330
1F
100
AcDbEntity
  8
0
  6
CONTINUOUS
 62
     7
100
AcDbCircle
 10
1635.5548609068
 20
3238.0232325537
 30
0.0
 40
2.170612230899736
100
AcDbArc
 50
10.1211181721
 51
17.771184511
  0
LWPOLYLINE
  5
27C
330
1F
100
AcDbEntity
  8
0
  6
CONTINUOUS
 62
     7
100
AcDbPolyline
 90
       12
 70
   128
 43
0.0
 10
1637.6916951037
 20
3238.4046733379
 10
1637.7247756816
 20
3238.2709354162
 10
1637.757170806
 20
3238.173340261
 10
1637.7849763728
 20
3238.1237231195
 10
1637.8046161032
 20
3238.1280370057
 10
1637.8139442301
 20
3238.1838455796
 10
1637.8123945094
 20
3238.282584399
 10
1637.8005033828
 20
3238.4127236903
 10
1637.7795523501
 20
3238.5613329709
 10
1637.7515083647
 20
3238.7138798833
 10
1637.7192324496
 20
3238.8538725674
 10
1637.6916951037
 20
3238.9484390616
  0
ARC
  5
27D
330
1F
100
AcDbEntity
  8
0
  6
CONTINUOUS
 62
     7
100
AcDbCircle
 10
1638.8668792329
 20
3239.3955196574
 30
0.0
 40
1.257353886813859
100
AcDbArc
 50
162.5023162355
 51
200.8285420342
  0
LINE
  5
27E
330
1F
100
AcDbEntity
  8
0
  6
CONTINUOUS
 62
     7
100
AcDbLine
 10
1637.679982791
 20
3239.773773402
 30
0.0
 11
1637.6916951037
 21
3239.7739708424
 31
0.0
  0
LWPOLYLINE
  5
27F
330
1F
100
AcDbEntity
  8
0
  6
CONTINUOUS
 62
     7
100
AcDbPolyline
 90
       11
 70
   128
 43
0.0
 10
1637.7043014861
 20
3144.7763897479
 10
1637.7246862746
 20
3144.7802938521
 10
1637.757081399
 20
3144.8397234082
 10
1637.7848869658
 20
3144.9457637966
 10
1637.8045863009
 20
3145.0844973326
 10
1637.8139442301
 20
3145.23794204
 10
1637.8124243117
 20
3145.388417691
 10
1637.8005331851
 20
3145.5208294094
 10
1637.7796119548
 20
3145.6224925816
 10
1637.7515977717
 20
3145.6825479865
 10
1637.7292758322
 20
3145.6895552576
  0
LINE
  5
280
330
1F
100
AcDbEntity
  8
0
  6
CONTINUOUS
 62
     7
100
AcDbLine
 10
1637.7193218566
 20
3145.6926733255
 30
0.0
 11
1637.6916951037
 21
3145.6600658596
 31
0.0
  0
LWPOLYLINE
  5
281
330
1F
100
AcDbEntity
  8
0
  6
CONTINUOUS
 62
     7
100
AcDbPolyline
 90
        9
 70
   128
 43
0.0
 10
1637.6916951037
 20
3145.6600658596
 10
1637.661952386
 20
3145.6255622208
 10
1637.638378749
 20
3145.6442818046
 10
1637.6240140296
 20
3145.7138553262
 10
1637.6202291346
 20
3145.824123919
 10
1637.6269346572
 20
3145.9617510438
 10
1637.6432663298
 20
3146.1124911904
 10
1637.6677042342
 20
3146.2615288794
 10
1637.6916951037
 20
3146.3692978024
  0
LWPOLYLINE
  5
282
330
1F
100
AcDbEntity
  8
0
  6
CONTINUOUS
 62
     7
100
AcDbPolyline
 90
       12
 70
   128
 43
0.0
 10
1637.6916951037
 20
3146.3692978024
 10
1637.7248054839
 20
3146.5095326304
 10
1637.7572006083
 20
3146.6667212546
 10
1637.7849763728
 20
3146.8224979937
 10
1637.8046161032
 20
3146.9569772482
 10
1637.8139442301
 20
3147.0546096563
 10
1637.8123945094
 20
3147.1062906086
 10
1637.8004735804
 20
3147.1084624529
 10
1637.7795225478
 20
3147.0613822341
 10
1637.7515083647
 20
3146.9687268138
 10
1637.7192026473
 20
3146.8386769295
 10
1637.6916951037
 20
3146.7116259038
  0
LWPOLYLINE
  5
283
330
1F
100
AcDbEntity
  8
0
  6
CONTINUOUS
 62
     7
100
AcDbPolyline
 90
        6
 70
   128
 43
0.0
 10
1637.6916951037
 20
3146.7116259038
 10
1637.661952386
 20
3146.5621784329
 10
1637.638378749
 20
3146.4358240366
 10
1637.6240140296
 20
3146.3491439819
 10
1637.6202291346
 20
3146.311134845
 10
1637.6218980647
 20
3146.3142640889
  0
ARC
  5
284
330
1F
100
AcDbEntity
  8
0
  6
CONTINUOUS
 62
     7
100
AcDbCircle
 10
1638.1895060626
 20
3145.5167751036
 30
0.0
 40
0.5865430458940949
100
AcDbArc
 50
162.857361176
 51
209.6933950545
  0
LWPOLYLINE
  5
285
330
1F
100
AcDbEntity
  8
0
  6
CONTINUOUS
 62
     7
100
AcDbPolyline
 90
        5
 70
   128
 43
0.0
 10
1637.7043014861
 20
3145.2236108482
 10
1637.7246862746
 20
3145.219706744
 10
1637.757081399
 20
3145.1602734625
 10
1637.7848869658
 20
3145.0542367995
 10
1637.7926057673
 20
3145.000000298
  0
ARC
  5
286
330
1F
100
AcDbEntity
  8
0
  6
CONTINUOUS
 62
     7
100
AcDbCircle
 10
1639.5289437346
 20
3144.1250171553
 30
0.0
 40
1.900799052594369
100
AcDbArc
 50
184.8503234959
 51
192.9388188853
  0
LWPOLYLINE
  5
287
330
1F
100
AcDbEntity
  8
0
  6
CONTINUOUS
 62
     7
100
AcDbPolyline
 90
        3
 70
   128
 43
0.0
 10
1637.6282757617
 20
3143.6252489686
 10
1637.6240140296
 20
3143.6508566141
 10
1637.6202291346
 20
3143.688865751
  0
ARC
  5
288
330
1F
100
AcDbEntity
  8
0
  6
CONTINUOUS
 62
     7
100
AcDbCircle
 10
1635.5553297758
 20
3143.0233414004
 30
0.0
 40
2.170131740281288
100
AcDbArc
 50
10.1204954739
 51
17.7721624729
  0
LWPOLYLINE
  5
289
330
1F
100
AcDbEntity
  8
0
  6
CONTINUOUS
 62
     7
100
AcDbPolyline
 90
       12
 70
   128
 43
0.0
 10
1637.6916951037
 20
3143.40467453
 10
1637.7247756816
 20
3143.2709366083
 10
1637.757170806
 20
3143.1733414531
 10
1637.7849763728
 20
3143.1237243116
 10
1637.8046161032
 20
3143.1280344725
 10
1637.8139442301
 20
3143.1838467717
 10
1637.8123945094
 20
3143.2825855911
 10
1637.8005033828
 20
3143.4127211571
 10
1637.7795523501
 20
3143.561334163
 10
1637.7515083647
 20
3143.7138810754
 10
1637.7192324496
 20
3143.8538737595
 10
1637.6916951037
 20
3143.9484402537
  0
ARC
  5
28A
330
1F
100
AcDbEntity
  8
0
  6
CONTINUOUS
 62
     7
100
AcDbCircle
 10
1638.8668959799
 20
3144.3955213364
 30
0.0
 40
1.257369712484873
100
AcDbArc
 50
162.5025668437
 51
200.8282914261
  0
LINE
  5
28B
330
1F
100
AcDbEntity
  8
0
  6
CONTINUOUS
 62
     7
100
AcDbLine
 10
1637.679982791
 20
3144.7737745941
 30
0.0
 11
1637.6916951037
 21
3144.7739720345
 31
0.0
  0
CIRCLE
  5
28C
330
1F
100
AcDbEntity
  8
0
  6
CONTINUOUS
 62
     7
100
AcDbCircle
 10
1695.1686567164
 20
3090.0
 30
0.0
 40
5.0
  0
CIRCLE
  5
28D
330
1F
100
AcDbEntity
  8
0
  6
CONTINUOUS
 62
     7
100
AcDbCircle
 10
2145.1686567164
 20
3090.0
 30
0.0
 40
5.000000000000455
  0
CIRCLE
  5
28E
330
1F
100
AcDbEntity
  8
0
  6
CONTINUOUS
 62
     7
100
AcDbCircle
 10
1695.1686567164
 20
3310.0
 30
0.0
 40
5.0
  0
CIRCLE
  5
28F
330
1F
100
AcDbEntity
  8
0
  6
CONTINUOUS
 62
     7
100
AcDbCircle
 10
2145.1686567164
 20
3310.0
 30
0.0
 40
5.000000000000455
  0
LINE
  5
290
330
1F
100
AcDbEntity
  8
0
  6
CONTINUOUS
 62
     7
100
AcDbLine
 10
1718.1686567164
 20
2973.1
 30
0.0
 11
1727.6686567164
 21
2973.1
 31
0.0
  0
LINE
  5
291
330
1F
100
AcDbEntity
  8
0
  6
CONTINUOUS
 62
     7
100
AcDbLine
 10
1718.1686567164
 20
2973.1
 30
0.0
 11
1718.1686496831
 21
2975.0000059605
 31
0.0
  0
LINE
  5
292
330
1F
100
AcDbEntity
  8
0
  6
CONTINUOUS
 62
     7
100
AcDbLine
 10
1727.6686567164
 20
2971.1
 30
0.0
 11
1720.1686567164
 21
2971.1
 31
0.0
  0
LINE
  5
293
330
1F
100
AcDbEntity
  8
0
  6
CONTINUOUS
 62
     7
100
AcDbLine
 10
1718.1686567164
 20
2973.1
 30
0.0
 11
1720.1686567164
 21
2971.1
 31
0.0
  0
LINE
  5
294
330
1F
100
AcDbEntity
  8
0
  6
CONTINUOUS
 62
     7
100
AcDbLine
 10
1727.6686567164
 20
2971.1
 30
0.0
 11
1727.6686567164
 21
2973.1
 31
0.0
  0
LINE
  5
295
330
1F
100
AcDbEntity
  8
0
  6
CONTINUOUS
 62
     7
100
AcDbLine
 10
1727.6686567164
 20
2973.1
 30
0.0
 11
2112.6686567164
 21
2973.1
 31
0.0
  0
LINE
  5
296
330
1F
100
AcDbEntity
  8
0
  6
CONTINUOUS
 62
     7
100
AcDbLine
 10
2112.6686567164
 20
2971.1
 30
0.0
 11
1727.6686567164
 21
2971.1
 31
0.0
  0
LINE
  5
297
330
1F
100
AcDbEntity
  8
0
  6
CONTINUOUS
 62
     7
100
AcDbLine
 10
2112.6686567164
 20
2971.1
 30
0.0
 11
2112.6686567164
 21
2973.1
 31
0.0
  0
LINE
  5
298
330
1F
100
AcDbEntity
  8
0
  6
CONTINUOUS
 62
     7
100
AcDbLine
 10
2122.1686637498
 20
2975.0000059605
 30
0.0
 11
2122.1686567164
 21
2973.1
 31
0.0
  0
LINE
  5
299
330
1F
100
AcDbEntity
  8
0
  6
CONTINUOUS
 62
     7
100
AcDbLine
 10
2112.6686567164
 20
2973.1
 30
0.0
 11
2122.1686567164
 21
2973.1
 31
0.0
  0
LINE
  5
29A
330
1F
100
AcDbEntity
  8
0
  6
CONTINUOUS
 62
     7
100
AcDbLine
 10
2120.1686567164
 20
2971.1
 30
0.0
 11
2112.6686567164
 21
2971.1
 31
0.0
  0
LINE
  5
29B
330
1F
100
AcDbEntity
  8
0
  6
CONTINUOUS
 62
     7
100
AcDbLine
 10
2120.1686567164
 20
2971.1
 30
0.0
 11
2122.1686567164
 21
2973.1
 31
0.0
  0
LINE
  5
29C
330
1F
100
AcDbEntity
  8
0
  6
CONTINUOUS
 62
     7
100
AcDbLine
 10
1637.7149111129
 20
3239.7739708424
 30
0.0
 11
1637.6916951037
 21
3239.7739708424
 31
0.0
  0
LINE
  5
29D
330
1F
100
AcDbEntity
  8
0
  6
CONTINUOUS
 62
     7
100
AcDbLine
 10
1637.7620881892
 20
3240.6600646675
 30
0.0
 11
1637.6916951037
 21
3240.6600646675
 31
0.0
  0
LINE
  5
29E
330
1F
100
AcDbEntity
  8
0
  6
CONTINUOUS
 62
     7
100
AcDbLine
 10
1637.8012186385
 20
3238.4046733379
 30
0.0
 11
1637.6916951037
 21
3238.4046733379
 31
0.0
  0
LINE
  5
29F
330
1F
100
AcDbEntity
  8
0
  6
CONTINUOUS
 62
     7
100
AcDbLine
 10
1637.765217433
 20
3241.7116247118
 30
0.0
 11
1637.6916951037
 21
3241.7116247118
 31
0.0
  0
LINE
  5
2A0
330
1F
100
AcDbEntity
  8
0
  6
CONTINUOUS
 62
     7
100
AcDbLine
 10
1637.7149111129
 20
3144.7739720345
 30
0.0
 11
1637.6916951037
 21
3144.7739720345
 31
0.0
  0
LINE
  5
2A1
330
1F
100
AcDbEntity
  8
0
  6
CONTINUOUS
 62
     7
100
AcDbLine
 10
1637.7620881892
 20
3145.6600658596
 30
0.0
 11
1637.6916951037
 21
3145.6600658596
 31
0.0
  0
LINE
  5
2A2
330
1F
100
AcDbEntity
  8
0
  6
CONTINUOUS
 62
     7
100
AcDbLine
 10
1637.8012186385
 20
3143.40467453
 30
0.0
 11
1637.6916951037
 21
3143.40467453
 31
0.0
  0
LINE
  5
2A3
330
1F
100
AcDbEntity
  8
0
  6
CONTINUOUS
 62
     7
100
AcDbLine
 10
1637.765217433
 20
3146.7116259038
 30
0.0
 11
1637.6916951037
 21
3146.7116259038
 31
0.0
  0
LINE
  5
2A4
330
1F
100
AcDbEntity
  8
0
  6
CONTINUOUS
 62
     7
100
AcDbLine
 10
1727.6686614848
 20
2975.0000059605
 30
0.0
 11
1727.6686567164
 21
2973.1
 31
0.0
  0
LINE
  5
2A5
330
1F
100
AcDbEntity
  8
0
  6
CONTINUOUS
 62
     7
100
AcDbLine
 10
2112.6686567164
 20
2973.1
 30
0.0
 11
2112.668651948
 21
2975.0000059605
 31
0.0
  0
ENDSEC
  0
SECTION
  2
OBJECTS
  0
DICTIONARY
  5
C
330
0
100
AcDbDictionary
  3
ACAD_GROUP
350
D
  3
ACAD_LAYOUT
350
1A
  3
ACAD_MLINESTYLE
350
17
  3
ACAD_PLOTSETTINGS
350
19
  3
ACDBHEADERROUNDTRIPXREC
350
2A6
  0
DICTIONARY
  5
D
102
{ACAD_REACTORS
330
C
102
}
330
C
100
AcDbDictionary
  0
DICTIONARY
  5
1A
102
{ACAD_REACTORS
330
C
102
}
330
C
100
AcDbDictionary
  0
DICTIONARY
  5
17
102
{ACAD_REACTORS
330
C
102
}
330
C
100
AcDbDictionary
  3
STANDARD
350
18
  0
DICTIONARY
  5
19
102
{ACAD_REACTORS
330
C
102
}
330
C
100
AcDbDictionary
  0
DICTIONARY
  5
2A6
102
{ACAD_REACTORS
330
C
102
}
330
C
100
AcDbDictionary
  3
CEPSNTYPE
350
2AF
  3
DIMSTYLEDATA
350
2C5
  3
FINGERPRINTGUID
350
2B0
  3
HYPERLINKBASE
350
2A9
  3
INSUNITS
350
2AE
  3
LAYOUTDICT
350
2AB
  3
LWETCUNION
350
2AD
  3
PLOTSETDICT
350
2AC
  3
PSVPSCALE
350
2B2
  3
PUCSBASE
350
2B5
  3
PUCSORGBACK
350
2BB
  3
PUCSORGBOTTOM
350
2B7
  3
PUCSORGFRONT
350
2BA
  3
PUCSORGLEFT
350
2B8
  3
PUCSORGRIGHT
350
2B9
  3
PUCSORGTOP
350
2B6
  3
PUCSORTHOREF
350
2B3
  3
PUCSORTHOVIEW
350
2B4
  3
STYLESHEET
350
2AA
  3
TSTACKALIGN
350
2A7
  3
TSTACKSIZE
350
2A8
  3
UCSBASE
350
2BE
  3
UCSORGBACK
350
2C4
  3
UCSORGBOTTOM
350
2C0
  3
UCSORGFRONT
350
2C3
  3
UCSORGLEFT
350
2C1
  3
UCSORGRIGHT
350
2C2
  3
UCSORGTOP
350
2BF
  3
UCSORTHOREF
350
2BC
  3
UCSORTHOVIEW
350
2BD
  3
VERSIONGUID
350
2B1
  0
MLINESTYLE
  5
18
102
{ACAD_REACTORS
330
17
102
}
330
17
100
AcDbMlineStyle
  2
Standard
 70
     0
  3

 62
   256
 51
90.0
 52
90.0
 71
     2
 49
0.5
 62
   256
  6
BYLAYER
 49
-0.5
 62
   256
  6
BYLAYER
  0
XRECORD
  5
2AF
102
{ACAD_REACTORS
330
2A6
102
}
330
2A6
100
AcDbXrecord
 90
        0
  0
XRECORD
  5
2C5
102
{ACAD_REACTORS
330
2A6
102
}
330
2A6
100
AcDbXrecord
1000
DSTYLE
1002
{
1070
   143
 40
0.0393700787
1070
    41
 40
3.556
1070
    44
 40
1.0
1070
    42
 40
1.0
1070
   147
 40
1.524
1070
    73
 70
     1
1070
    74
 70
     1
1070
   340
340
11
1070
   140
 40
3.5
1070
   284
 70
     0
1070
    78
 70
     0
1002
}
  0
XRECORD
  5
2B0
102
{ACAD_REACTORS
330
2A6
102
}
330
2A6
100
AcDbXrecord
  1
{D0271823-6815-44C4-82E1-9F4890AE286E}
  0
XRECORD
  5
2A9
102
{ACAD_REACTORS
330
2A6
102
}
330
2A6
100
AcDbXrecord
  1

  0
XRECORD
  5
2AE
102
{ACAD_REACTORS
330
2A6
102
}
330
2A6
100
AcDbXrecord
 90
        4
  0
XRECORD
  5
2AB
102
{ACAD_REACTORS
330
2A6
102
}
330
2A6
100
AcDbXrecord
340
1A
  0
XRECORD
  5
2AD
102
{ACAD_REACTORS
330
2A6
102
}
330
2A6
100
AcDbXrecord
 90
    10269
  0
XRECORD
  5
2AC
102
{ACAD_REACTORS
330
2A6
102
}
330
2A6
100
AcDbXrecord
340
19
  0
XRECORD
  5
2B2
102
{ACAD_REACTORS
330
2A6
102
}
330
2A6
100
AcDbXrecord
 40
0.0
  0
XRECORD
  5
2B5
102
{ACAD_REACTORS
330
2A6
102
}
330
2A6
100
AcDbXrecord
340
0
  0
XRECORD
  5
2BB
102
{ACAD_REACTORS
330
2A6
102
}
330
2A6
100
AcDbXrecord
 10
0.0
 20
0.0
 30
0.0
  0
XRECORD
  5
2B7
102
{ACAD_REACTORS
330
2A6
102
}
330
2A6
100
AcDbXrecord
 10
0.0
 20
0.0
 30
0.0
  0
XRECORD
  5
2BA
102
{ACAD_REACTORS
330
2A6
102
}
330
2A6
100
AcDbXrecord
 10
0.0
 20
0.0
 30
0.0
  0
XRECORD
  5
2B8
102
{ACAD_REACTORS
330
2A6
102
}
330
2A6
100
AcDbXrecord
 10
0.0
 20
0.0
 30
0.0
  0
XRECORD
  5
2B9
102
{ACAD_REACTORS
330
2A6
102
}
330
2A6
100
AcDbXrecord
 10
0.0
 20
0.0
 30
0.0
  0
XRECORD
  5
2B6
102
{ACAD_REACTORS
330
2A6
102
}
330
2A6
100
AcDbXrecord
 10
0.0
 20
0.0
 30
0.0
  0
XRECORD
  5
2B3
102
{ACAD_REACTORS
330
2A6
102
}
330
2A6
100
AcDbXrecord
340
0
  0
XRECORD
  5
2B4
102
{ACAD_REACTORS
330
2A6
102
}
330
2A6
100
AcDbXrecord
 70
     0
  0
XRECORD
  5
2AA
102
{ACAD_REACTORS
330
2A6
102
}
330
2A6
100
AcDbXrecord
  1

  0
XRECORD
  5
2A7
102
{ACAD_REACTORS
330
2A6
102
}
330
2A6
100
AcDbXrecord
 90
        1
  0
XRECORD
  5
2A8
102
{ACAD_REACTORS
330
2A6
102
}
330
2A6
100
AcDbXrecord
 90
       70
  0
XRECORD
  5
2BE
102
{ACAD_REACTORS
330
2A6
102
}
330
2A6
100
AcDbXrecord
340
0
  0
XRECORD
  5
2C4
102
{ACAD_REACTORS
330
2A6
102
}
330
2A6
100
AcDbXrecord
 10
0.0
 20
0.0
 30
0.0
  0
XRECORD
  5
2C0
102
{ACAD_REACTORS
330
2A6
102
}
330
2A6
100
AcDbXrecord
 10
0.0
 20
0.0
 30
0.0
  0
XRECORD
  5
2C3
102
{ACAD_REACTORS
330
2A6
102
}
330
2A6
100
AcDbXrecord
 10
0.0
 20
0.0
 30
0.0
  0
XRECORD
  5
2C1
102
{ACAD_REACTORS
330
2A6
102
}
330
2A6
100
AcDbXrecord
 10
0.0
 20
0.0
 30
0.0
  0
XRECORD
  5
2C2
102
{ACAD_REACTORS
330
2A6
102
}
330
2A6
100
AcDbXrecord
 10
0.0
 20
0.0
 30
0.0
  0
XRECORD
  5
2BF
102
{ACAD_REACTORS
330
2A6
102
}
330
2A6
100
AcDbXrecord
 10
0.0
 20
0.0
 30
0.0
  0
XRECORD
  5
2BC
102
{ACAD_REACTORS
330
2A6
102
}
330
2A6
100
AcDbXrecord
340
0
  0
XRECORD
  5
2BD
102
{ACAD_REACTORS
330
2A6
102
}
330
2A6
100
AcDbXrecord
 70
     0
  0
XRECORD
  5
2B1
102
{ACAD_REACTORS
330
2A6
102
}
330
2A6
100
AcDbXrecord
  1
{FAEB1C32-E019-11D5-929B-00C0DF256EC4}
  0
ENDSEC
  0
EOF
